Supertones - Heaven Chords & Tabs

 

Heaven Chords & Tabs

Supertones Chords & Tabs

Version: 1 Type: Bass Tab 0 ratings
1 star 2 stars 3 stars 4 stars 5 stars
comments

Heaven Bass Tab

Supertones bass tab for "Heaven" by: Seth McLagan

intro:
G|----------------------------------|
D|-------------------7-7-7-7-7-7-7-7|      (x2)
A|0-0-4-4-7-7-4-4-------------------|
E|----------------------------------|

verse:
G|---------4-6-9-6-4--------------|
D|----2-3-4--------------2-3-4-4-2|         (x2)
A|0-0---------------0-0-----------|
E|--------------------------------|
[ Tab from: http://www.guitartabs.cc/tabs/s/supertones/heaven_btab.html ]
chorus:
G|----------|             G|----------------------|
D|0-0--0-1-2|     (x4)    D|------2-2-2-0-0--0-1-2|        (x2)
A|---2------|             A|0-0-0-----------2-----|
E|----------|             E|----------------------|

G|------------------------------------------|
D|------2-2-2-5-5-5------0-0-0-----------2-2|
A|0-0-0-------------5-5-5------0-0-0-0-0----|
E|------------------------------------------|

intro-verse-chorus-intro-verse-chorus-intro

check cd for correct rhythm.

Comments