Supersuckers - Coattail Rider Chords & Tabs

 

Coattail Rider Chords & Tabs

Supersuckers Chords & Tabs

Version: 1 Type: Bass Tab 0 ratings
1 star 2 stars 3 stars 4 stars 5 stars
comments

Coattail Rider Bass Tab

"Coattail Rider" by the Supersuckers from the album The Smoke of Hell.  
To be played using only 16th notes.  Transcribed by FMW3.
         intro                                                   
G---||--------------------------------------------------------------
D---||*-------------------------------------------------------------
A---||*--4--4--4--4--4--4--4--4--4--4--4--4--4--4--4--4--4--4--4--4-
E---||--------------------------------------------------------------
                                                                 
                                     2x                
G--------------------------------------||
D-------------------------------------*||
A---4--4--4--4--4--4--4--4--4--4--4--4*||
E--------------------------------------||
                                                                 
         body                                          2x     
G---||---------------------------------------------------||
D---||*-------------------------------------------------*||
A---||*--------------------------4--4--4--4--4--4--4--4-*||
E---||---5--5--5--5--2--2--2--2--------------------------||
                                                                 
                                                                 
G-------------------------------------------------------------
D-------------------------------------------------- 2--2--2--2
A-------------------------------------------------------------
E---0--0--0--0--5--5--5--5--2--2--2--2--2--2--2--2------------
                                                                 
                                                               
G-------------------------------------|
D-------------------------------------|
A--5--5--5--5--4--4--4--4--4--4--4--4-|
E-------------------------------------|
  

                                                                                                                                     2x     
G---||--------------------------------------------------||
D---||*------------------------------------------------*||
A---||*--5--5--5--5--------------4--4--4--4--4--4--4--4*||
E---||---------------2--2--2--2-------------------------||
                                                                 
                                                                 
G---------------------------------------------------
D---------------------------------------------------
A---------------------------------------------------
E---0--0--0--0--5--5--5--5--2--2--2--2--2--2--2--2--
                                                                 
                                                                 
G-----------------------------------------------|
D-2--2--2--2------------------------------------|
A-------------5--5--5--5--4--4--4--4--4--4--4--4|
E-----------------------------------------------|                                                                 


This is the basics to the song.  You will just end up repeating
the intro and the body until the song is over.  If you have any 
questions, comments, or corrections, please E mail me at
XAQK88A@prodigy.com.  Thanx.






[ Tab from: http://www.guitartabs.cc/tabs/s/supersuckers/coattail_rider_btab.html ]
Comments