Supersuckers - Bad Bad Bad Chords & Tabs

 

Bad Bad Bad Chords & Tabs

Supersuckers Chords & Tabs

Version: 1 Type: Tab 0 ratings
1 star 2 stars 3 stars 4 stars 5 stars
comments

Bad Bad Bad Tab

I can only figure out the rhythm part-the lead part is too distorted, too fast, and just
too complex for me to figure out, sorry :/ Anyway, pretty much the entire song is played
with a liberal dose of distortion, so I can't exactly figure out the strumming pattern,
but this is how I play it and it sounds pretty accurate, so enjoy


Verse (intro play this as power chords)
e|----------------------------------|
B|----------------------------------|
G|------------------2---2-2---2-2-2-|
D|--4---4-4---4-4-4-2---2-2---2-2-2-|
A|--4---4-4---4-4-4-0---0-0---0-0-0-|
E|--2---2-2---2-2-2-----------------|
[ Tab from: http://www.guitartabs.cc/tabs/s/supersuckers/bad_bad_bad_tab.html ]
e|----------------------------------|
B|----------------------------------|
G|-4---4-4---4-4-4-4---4-4---4-4-4--|
D|-4---4-4---4-4-4-4---4-4---4-4-4--|
A|-2---2-2---2-2-2-2---2-2---2-2-2--|
E|----------------------------------|

Chorus
e|----------------------------------|
B|----------------------------------|
G|----------------------------------|
D|-4--4--4---4-4-2-2-2-2-2-2-2-2-2--|
A|-4--4--4---4-4-2-2-2-2-2-2-2-2-2--|
E|-2--2--2---2-2-0-0-0-0-0-0-0-0-0--|

Bridge/solo whatever you want to call it
e|----------------------------------|
B|----------------------------------|
G|---------2-2-2---4-4-4-7---7-7-7--|
D|-4-4-4---2-2-2---4-4-4-7---7-7-7--|
A|-4-4-4---0-0-0---2-2-2-5---5-5-5--|
E|-2-2-2----------------------------|

Ending
e|----------------------------------|
B|----------------------------------|
G|----------------------------------|
D|-4---4---4------------------------|
A|-4---4---4--let-ring--------------|
E|-2---2---2------------------------|

Woot, another one down
Comments