Supermen - Where Would We Be Chords & Tabs

 

Where Would We Be Chords & Tabs

Supermen Chords & Tabs

Version: 1 Type: Chords 0 ratings
1 star 2 stars 3 stars 4 stars 5 stars
comments

Where Would We Be Chords

   
G
What would happen
       C
If the south won the Civil War
               A
Where would we be
          D
Would you be me

G
What would happen
       C
If you weren't with me
              A
Where would I be
              D
Sadness would reach me

B
But not to be selfish
   G
It is just this
        A    Em
I can't stop thinking about you
                 C   F7   C
You're my number one wish
[ Tab from: http://www.guitartabs.cc/tabs/s/supermen/where_would_we_be_crd.html ]
Solo
--------------------------------
12-11-10----------12-11-10------
---------12-11-12----------12-11
--------------------------------
--------------------------------
--------------------------------

--------------------------------
------------------------12-11-10
10-11-10-11-10-11-10-11---------
--------------------------------
--------------------------------
--------------------------------

---------------------------------
12-11-10-----------12-11-10------
---------12-11-9-7----------12-11
---------------------------------
---------------------------------
---------------------------------

--10-12
-------
9------
-------
-------
-------

G
What would happen
       C               Em
If the world stopped tomorrow
C               A
Where would you be
             D
Would you be with me
   G5
In Heaven is where I'd be

Then the solo again
Comments