Superjoint Ritual - Waiting For The Turning Point Chords & Tabs

 

Waiting For The Turning Point Chords & Tabs

Superjoint Ritual Chords & Tabs

Version: 1 Type: Tab 0 ratings
1 star 2 stars 3 stars 4 stars 5 stars
comments

Waiting For The Turning Point Tab

Waiting for the turning point

Riff 1

|----------|
|----------|
|----------|
|----------|
|-57-57-5--|
|-35-35-3--|

Riff 2a

|----------------------------------|
|----------------------------------|
|----------------------------------|
|----------------------------------|
|---------8-88-88------------------|
|-5-55-55---------8-88-88-7-77-77--|

Riff 2b

|------------------------------------------|
|------------------------------------------|
|------------------------------------------|
|--------10-1010-1010----------------------|
|-7-77-77-8-8 8- 8 8-10-1010-1010-9-99-99--|
|-5-55-55-------------8-8 8- 8 8--7-77-77--|

Riff 3
Just improve something like scratches and/or tremolo picking
'cause you basically hear Phil's scream, so it ain't matter that
much what exactly you play.

Riff 4a

|------------------|
|------------------|
|------------------|
|------------------|
|-4-44-44-3-33-33--|
|-2-22-22-1-11-11--|

Riff 4b
[ Tab from: http://www.guitartabs.cc/tabs/s/superjoint_ritual/waiting_for_the_turning_point_tab.html ]
|------------------|
|------------------|
|------------------|
|------------------|
|-4-4-4-4-3-3-3-3--|
|-2-2-2-2-1-1-1-1--|

Riff 5a

|------------------------------------------------------------------|
|------------------------------------------------------------------|
|------------------------------------------------------------------|
|------------------------------------------------------------------|
|------------------------------------------------------------------|
|-1-1-1-1-2-2-2-2-3-3-3-3-4-4-4-4-5-5-5-5-6-6-6-6-7-7-7-7-8-8-8-8--|

Riff 5b

|--------------------------------------------------|
|--------------------------------------------------|
|--------------------------------------------------|
|--------------------------------------------------|
|-3-3-3-3-4-4-4-4-5-5-5-5-6-6-6-6-7-7-7-7-8-8-8-8--|
|-1-1-1-1-2-2-2-2-3-3-3-3-4-4-4-4-5-5-5-5-6-6-6-6--|

Order:
Riff 1  x1   2 gtrs.
Riff 2a x2   1 gtr.
Riff 2b x4   2 gtrs.
Riff 3  x1   2 gtrs.
Riff 1  x1   2 gtrs.
Riff 2b x2   2 gtrs.
Riff 4a x4   2 gtrs.
Riff 4b x4   2 gtrs.
Riff 5a x1   2 gtrs.
Riff 5b x1   2 gtrs.
Riff 1  x1   2 gtrs.
Riff 2b x4   2 gtrs.
        
        F#|-57-57--|
End On: C#|-35-35--|
Comments