Superjoint Ritual - It Takes No Guts Chords & Tabs

 

It Takes No Guts Chords & Tabs

Superjoint Ritual Chords & Tabs

Version: 1 Type: Tab 0 ratings
1 star 2 stars 3 stars 4 stars 5 stars
comments

It Takes No Guts Tab

   
.  - palm mute           /  - slide up to
\  - slide down to       ~  - vibrato
h  - hammer on           b  - Bend
p  - pull off            Suffixes for bend
t  - tap                 f  - full bend    h - half bend
ph - pinched harmonic    q  - quarter bend t - tap bend
*  - see comment         ^  - Hold bend    r release bend
x  - Stuccatto           ~  - vibrato bend
,  - slight palm mute    () - ghost note, sustained note
"  - tremolo note         - Trill

Tunning E B G D A D (Dropped D)

Heavy Distortion Throughout

Intro and Verse

|-------------------------------------------------------------------|
|-------------------------------------------------------------------|
|-------------------------------------------------------------------|
|-------------------------------------------------------------------|
|-------------------------------------------------------------------|
|-0-0-0-0-0-0-0-0-0-0-0-0-0-0-0-0-0-0-0-0-0-0-0---------------------|

Chorus Bits

|-------------------------------------------------------------------|
|-------------------------------------------------------------------|
|-------------------------------------------------------------------|
|-------------------------------------------------------------------|
|-0-0------0-----0-0------------------------------------------------|
|-0-0--bq3-0-----0-0--bq3-0-----------------------------------------|

:43 Seconds In
[ Tab from: http://www.guitartabs.cc/tabs/s/superjoint_ritual/it_takes_no_guts_tab.html ]
|-------------------------------------------------------------------|
|-------------------------------------------------------------------|
|-------------------------------------------------------------------|
|-------------------------------------------------------------------|
|-0----0---0---0---0---0---0---0------------------------------------|
|-0----0---0---0---0---0---0----------------------------------------|

:50 Seconds In

|-------------------------------------------------------------------|
|-------------------------------------------------------------------|
|-------------------------------------------------------------------|
|-------------------------------------------------------------------|
|-------------------------2---2---2----2---2------------------------|
|-PM:0-0-0-0-0-0-0-0:-----2---2---2----2---2------------------------|

Above Part II (next vocal part)

|-------------------------------------------------------------------|
|-------------------------------------------------------------------|
|-------------------------------------------------------------------|
|---------------(5)-------------------------------------------------|
|------------------------------------2--2--2--2--2------------------|
|-PM:-0-0-0-0--------0-0-0-0-0:------2--2--2--2--2------------------|

Last Part

|-------------------------------------------------------------------|
|-------------------------------------------------------------------|
|-------------------------------------------------------------------|
|-------------------------------------------------------------------|
|--0-0---2--0-0-3---------------------------------------------------|
|--0-0---2--0-0-3---------------------------------------------------|
Comments