Superjoint Ritual - Fuck Your Enemy Chords & Tabs

 

Fuck Your Enemy Chords & Tabs

Superjoint Ritual Chords & Tabs

Version: 2 Type: Tab 0 ratings
1 star 2 stars 3 stars 4 stars 5 stars
comments

Fuck Your Enemy Tab

   
drop d tuning [low to high: d A d G B e]
tabbed by loudblast - insane_loudblast@hotmail.com


e|-------------------------------------------------------------------|
B|-------------------------------------------------------------------| 
G|-------------------------------------------------------------------|    <--<8x
D|-------------------------------------------------------------------|  
A|---2p0--2p0--2p0---2p0--2p0--0-3-----------------------------------|
D|---2p0--2p0--2p0---2p0--2p0--0-3-----------------------------------|

e|-------------------------------------------------------------------|
B|-------------------------------------------------------------------|
G|-------------------------------------------------------------------|
D|-------------------------------------------------------------------|    <--<3x
A|---2p0--2p0--2p0---2p0--2p0----------------------------------------|
D|---2p0--2p0--2p0---2p0--2p0--0-3~~---------------------------------|

e|-------------------------------------------------------------------|
B|-----------------------------------?-------------------------------|
G|-----------------------------------?-------------------------------|   <---<1x
D|-----------------------------------?-------------------------------|
A|---2p0--2p0--2p0---2p0--2p0----------------------------------------|
D|---2p0--2p0--2p0---2p0--2p0----------------------------------------|

e|-------------------------------------------------------------------|
B|-------------------------------------------------------------------|
G|-------------------------------------------------------------------|  <----<4x
D|-------------------------------------------------------------------|
A|---2p0--2p0--2p0---2p0--2p0--0-3-----------------------------------|
D|---2p0--2p0--2p0---2p0--2p0--0-3-----------------------------------|
[ Tab from: http://www.guitartabs.cc/tabs/s/superjoint_ritual/fuck_your_enemy_tab_ver_2.html ]
e|---------------------------------|----------------2x---------------|
B|---------------------------------|---------------------------------|
G|---------------------------------|---------------------------------|   <---<1x
D|---------------------------------|---------------------------------|
A|-----0--0--0--0--0--0--0--0--0---|---2p0--2p0--2p0---2p0--2p0--0-3-|
D|-----0--0--0--0--0--0--0--0--0---|---2p0--2p0--2p0---2p0--2p0--0-3-|
  P.M. .  .  .  .  .  .  .  .  .

e|---------------------------------|----------------4x---------------|
B|---------------------------------|---------------------------------|
G|---------------------------------|---------------------------------|  <----<1x
D|---------------------------------|---------------------------------|
A|-----0--0--0--0--0--0--0--0--0---|---2p0--2p0--2p0---2p0--2p0--0-3-|
D|-----0--0--0--0--0--0--0--0--0---|---2p0--2p0--2p0---2p0--2p0--0-3-|
  P.M. .  .  .  .  .  .  .  .  .

e|-------------------------------------------------------------------|
B|-------------------------------------------------------------------|
G|----8-6-5----------------------------------------------------------|  <---<3x
D|----------8-6-5----------------------------------------------------|
A|----------------8-6-5--------2p0--2p0--2p0---2p0--2p0--0-3---------|
D|----------------------7-5-3--2p0--2p0--2p0---2p0--2p0--0-3---------|

e|-------------------------------------------------------------------|
B|-------------------------------------------------------------------|
G|-------------------------------------------------------------------|  <----<2x
D|-------------------------------------------------------------------|
A|---2p0--2p0--2p0---2p0--2p0--0-3-----------------------------------|
D|---2p0--2p0--2p0---2p0--2p0--0-3-----------------------------------|

e|-------------------------------------------------------------------|
B|-------------------------------------------------------------------|
G|-------------------------------------------------------------------|  <----<1x
D|-------------------------------------------------------------------|
A|---2p0--2p0--2p0---2p0--2p0--0-3--0--------------------------------|
D|---2p0--2p0--2p0---2p0--2p0--0-3--0--------------------------------|

  well this is my first tab, i'm not sure of some parts but i hope you enjoy it
Comments