Superjoint Ritual - Fuck Your Enemy Chords & Tabs

 

Fuck Your Enemy Chords & Tabs

Superjoint Ritual Chords & Tabs

Version: 1 Type: Tab 0 ratings
1 star 2 stars 3 stars 4 stars 5 stars
comments

Fuck Your Enemy Tab

   
Dropped D or C, your pick

Riff 1
E/-------------------------------------------
B/-------------------------------------------
G/-------------------------------------------
D/-------------------------------------------
A/0-5-0-5-0-5-0-5-0-5/7-0-5-0-5-0-5-0-5-0-5/7
D/0-3-0-3-0-3-0-3-0-3/5-0-3-0-3-0-3-0-3-0-3/5

Thats the main riff which is played for most of the song
[ Tab from: http://www.guitartabs.cc/tabs/s/superjoint_ritual/fuck_your_enemy_tab.html ]
Riff 2
E/-----------------
B/-----------------
G/-----------------
D/-----------------
A/5-5-5-5-5-5-5-5-5
D/3-3-3-3-3-3-3-3-3

Riff 3
E/-----------------------
B/-----------------------
G/-----------------------
D/-----------------------
A/-----------------------
D/7-6-0-6-5-0-5-4-0-4-3-0

Since this song only has 3 tabs in it its v easy to learn

Order
Riff 1 x 8
Riff 1 (slow) x 4
Riff 1 x 4
Riff 2 x 1
Riff 1 x 2
Riff 2 x 1
Riff 1 x 4
Riff 3 x 1
Riff 1 x 1
Riff 3 x 1
Riff 1 x 1
Riff 3 x 1
Riff 1 x 1
Riff 3 x 1
Riff 1 x 4 

Itlof
Comments