Superjoint Ritual - Dress Like A Target Chords & Tabs

 

Dress Like A Target Chords & Tabs

Superjoint Ritual Chords & Tabs

Version: 1 Type: Tab 0 ratings
1 star 2 stars 3 stars 4 stars 5 stars
comments

Dress Like A Target Tab

   
#----------------------------------PLEASE NOTE---------------------------------#
#This file is the author's own work and represents their interpretation of the #
#song. You may only use this file for private study, scholarship, or research. #
#------------------------------------------------------------------------------#
[ Tab from: http://www.guitartabs.cc/tabs/s/superjoint_ritual/dress_like_a_target_tab.html ]
  
       Song: Dress Like A Target
     Artist: Superjoint Ritual
      Album: A Lethal Dose Of American Hatred
      Label: Sanctuary
    Release: July 22, 2003 
     Tuning: C# F# B E G# C# (low to high)
         By: David Waterson
             davie_gravy@yahoo.com
Transcribed: 
        
Riff 1
|------------------------------------------------------------------------------|
|------------------------------------------------------------------------------|
|----------5--555--------------------------------5--555------------------------|
|-2--222---5--555---7--777--7--777------2--222---5--555---7--777--6--666-------|
|-2--222---3--333---6--666--6--666------2--222---3--333---6--666--5--555-------|
|-0--000--------------------------------0--000---------------------------------|  


Riff 2    * = PM
|-------------------|
|-------------------|
|-------------------|
|-------------------|
|--666--555--444--3-|
|--555--444--333--2-|  
   ***  ***  ***  
   
   
Riff 3    * = PM
|-------------------|
|-------------------|
|-------------------|
|-------------------|
|--888--777--666--5-|
|--777--666--555--4-|  
   ***  ***  ***     
   
   
Riff 4
|--------------------------------------|
|--------------------------------------|
|--------------------------------------|
|------------------------------0h2p0h2-|
|--------------------------------------|
|-3-2---3-2---3-2---3-2---0-3-2--------|  
    
   
   
Riff 5   * = PM
|----------------------------------|
|----------------------------------|
|----------------------------------|
|---5---4---5---4---5---4---3---3--|
|--4---3---4---3---4---3---2---2---|
|-0---0---0---0---0---0---0---0----|  
  *   *   *   *   *   *   *   *



Riff 1  x  4

Riff 2  x  4

Riff 3  x  2

Riff 2  x  4

Riff 1  x  4

Riff 4  x  10

Riff 5  x  2

Riff 1  x  2

Riff 2  x  4

Riff 3  x  2

Riff 2  x  4
Comments