Superjoint Ritual - Destruction Of A Person Chords & Tabs

 

Destruction Of A Person Chords & Tabs

Superjoint Ritual Chords & Tabs

Version: 1 Type: Tab 0 ratings
1 star 2 stars 3 stars 4 stars 5 stars
comments

Destruction Of A Person Tab

Destruction of a person
Riff 1

|-----------------------------------------------------------------------------------|
|-----------------------------------------------------------------------------------|
|-----------------------------------------------------------------------------------|
|----------11-----------------------------------------------------------------------|
|-----10------10------10---8--8-8-8----10---11-10-7----10---7--7-7--5-7-5-7-5-8-7-5-|
|-//0----0-------7--0----0-6--6-6-6--0----0----------0----0-5--5-5--3-5-3-5-3-6-5-3-|

Riff 2
|---------------------------------------|
|---------------------------------------|
|---------------------------------------|
|---------------------------------------|
|-0-13-10--0-13-10--0-13-10--14--13-10--|
|---------------------------------------|

Riff 3a
[ Tab from: http://www.guitartabs.cc/tabs/s/superjoint_ritual/destruction_of_a_person_tab.html ]
|------------------------------------------------|
|------------------------------------------------|
|------------------------------------------------|
|----9--10-----9--10-----7--8-----5--6-----5--6--|
|-7--7---8--7--7---8--5--5--6--3--3--4--3--3--4--|
|-5---------5---------3--------1--------1--------|

Riff 3b

|--------------------------------------|
|--------------------------------------|
|--------------------------------------|
|----9--10-----7--8-----5--6-----5--6--|
|-7--7---8--5--5--6--3--3--4--3--3--4--|
|-5---------3--------1--------1--------|

Riff 4

|-----------------------------|
|-----------------------------|
|-----------------------------|
|-----------------------------|
|-0-0-3--0-0-6--0-0-6-3--0-3--|
|-----------------------------|

Riff 5

|------------|
|------------|
|------------|
|-222222-----|
|-0000005-4--|
|-------3-2--|


Order:
Riff 1  x5   2 gtrs.
Riff 2  x4   2 gtrs.
Riff 3a x1   2 gtrs.
Riff 3b x1   2 gtrs.
Riff 3a x1   2 gtrs.
Riff 3b x1   2 gtrs.
Riff 2  x4   2 gtrs.
Riff 3a x1   2 gtrs.
Riff 3b x1   2 gtrs.
Riff 3a x1   2 gtrs.
Riff 3b x1   2 gtrs.
Riff 4  x1   1 gtr.
Riff 4  x7   2 gtrs. (2nd and 3rd time play: F#|-0-0-3--0-6--0-0-6-3--0-3--|)
Riff 5  x4   2 gtrs.
Riff 4  x4   2 gtrs.
Riff 5  x20  2 gtrs.
Comments