Superjoint Ritual - Death Threat Chords & Tabs

 

Death Threat Chords & Tabs

Superjoint Ritual Chords & Tabs

Version: 1 Type: Tab 0 ratings
1 star 2 stars 3 stars 4 stars 5 stars
comments

Death Threat Tab

     v=vibrato
     p=palm mute
     b=bend up 1/2

               drop d tuning             

                        Superjoint Ritual  
                         "DEATH THREAT"

E--------------------------------------------------------------
B--------------------------------------------------------------
G--------------------------------------------------------------
D--2----5----3----4--------------------------------------------
A--2----5----3----4--------------------------------------------
D--2----5----3----4--------------------------------------------

                       
        -Chorus
E-----------------------------------------------------------------------------------
B-----------------------------------------------------------------------------------
G-----------------------------------------------------------------------------------
D--0----9/----0---0-0----9/----0-0-0----9/----0---0-0----0p-0p---5v------------
A--0----9/----0---0-0----9/----0-0-0----9/----0---0-0----0p-0p------------------
D--0----9/----0---0-0----9/----0-0-0----9/----0---0-0----0p-0p------------------


                                                       *repeat above*


[ Tab from: http://www.guitartabs.cc/tabs/s/superjoint_ritual/death_threat_tab.html ]
        -Third verse
E--------------------------------------------------------------
B--------------------------------------------------------------
G--------------------------------------------------------------
D--------------------------------------------------------------
A--------------------------------------------------------------
D--2b----5b----3b----4b-------------------------------------




        -Bridge or whatever
E--------------------------------------------------------------
B--------------------------------------------------------------
G--------------------------------------------------------------
D------------------------------5v------------------------------
A---0---0p-0----0p-0---0p-0---------------------------------
D---0---0p-0----0p-0---0p-0---------------------------------





        -last segment
E--------------------------------------------------------------
B--------------------------------------------------------------
G--------------------------------------------------------------
D---0----------------------------------------------------------
A---0----------------------------------------------------------
D---0---0p-0p-0p-0p-0p-0p-0p-------------------------------



                   Ok.  That's basically it.  As far a the strumming, it's not hard 
to figure out and to anyone who cant, then just do yourself and us a favor by 
just putting down the guitar all together for christ sake. losers.  And for evryone else, enjoy.                                              
Comments