Superjoint Ritual - All Of Our Lives Will Get Tired Chords & Tabs

 

All Of Our Lives Will Get Tired Chords & Tabs

Superjoint Ritual Chords & Tabs

Version: 1 Type: Tab 0 ratings
1 star 2 stars 3 stars 4 stars 5 stars
comments

All Of Our Lives Will Get Tired Tab

Band- Superjoint Ritual 
Song- All Of Our Lives Will Get Tired

Eb|-------------------|
Bb|-------------------|
F#|-------------------|
C#|-------------------|
G#|-6--6--6---------6-|
C#|-4--4--4--2-4-2--4-|

gt1
                                       pick slide
Eb|----------------------------------------------------------------------------------------|
Bb|----------------------------------------------------------------------------------------|
F#|----------------------------------------------------------------------------------------|
C#|-----------------------------------------------------------5NH--------------------------|
G#|-6--6--6---------6-----(6)-----------x\----x/x\x-------5NH-----5NH-----5NH------5NH-5NH-|
C#|-4--4--4--2-4-2--4-----(4)-----------X\----x/x\x---5NH-------------5NH------5NH---------|

gt2
Eb|----------------------------------------------------------------------------------------|
Bb|----------------------------------------------------------------------------------------|
F#|----------------------------------------------------------------------------------------|
C#|--------------------------------------------------6--6--6--6--6--6----------------------|
G#|--------------------------------------------------4--4--4--4--4--4--4--6-6-6-6--4-6-6-6-|
C#|00000000-1-00000000-2p1-00000000-1-00000000-2p1-0-------------------2--4-4-4-4--2-4-4-4-|


                                                                      
Eb|----------------------------------------------------------------------------------------|
Bb|----------------------------------------------------------------------------------------|
F#|----------------------------------------------------------------------------------------|
C#|--------------------------------------------------6--6--6--6--6--6----------------------|
G#|--------------------------------------------------4--4--4--4--4--4--4--6-6-6-6--4-6-6-6-|
C#|00000000-1-00000000-2p1-00000000-1-00000000-2p1-0-------------------2--4-4-4-4--2-4-4-4-|

                                                                    
Eb|----------------------------------------------------------------------------------------|
Bb|----------------------------------------------------------------------------------------|
F#|----------------------------------------------------------------------------------------|
C#|--------------------------------------------------6--6--6--6--6--6----------------------|
G#|--------------------------------------------------4--4--4--4--4--4--4--6-6-6-6--4-6-6-6-|
C#|00000000-1-00000000-2p1-00000000-1-00000000-2p1-0-------------------2--4-4-4-4--2-4-4-4-|
                                                                       
Eb|-----------------------------------------------------------------------|
Bb|-----------------------------------------------------------------------|
F#|-----------------------------------------------------------------------|
C#|-----------------------------------------------------------------------|
G#|--------------------------------------------------8--8-8--8-8--8-8-8-8-|
C#|00000000-1-00000000-2p1-00000000-1-00000000-2p1-0-6--6-6--6-6--6-6-6-6-|

verse
Eb|--------------------------------|
Bb|--------------------------------|
F#|--------------------------------|
C#|---------------6--6--6--6---6-6-|
G#|-2------(2)----4--4--4--4---4-4-|
C#|-0------(0)---------------------|

Eb|--------------------------------------------------------|
Bb|--------------------------------------------------------|
F#|--------------------------------------------------------|
C#|---------------4----------------------------------------|
G#|-2------(2)----2--0-----4--2--0---2--0------4--2h3p2----|
C#|-0------(0)----------2-------------------2-----------2~-|

repeat
Eb|--------------------------------------------|
Bb|--------------------------------------------|
F#|--------------------------------------------|
C#|--------------------------------------------|
G#|--2--0-----4--2--0---2--0-----4--2h3p2------|
C#|--------2------------------2-----------2~~--|

1:14
Eb|-------------------|
Bb|-------------------|
F#|-------------------|
C#|-------------------|
G#|-6--6--6---------6-|
C#|-4--4--4--2-4-2--4-|

[ Tab from: http://www.guitartabs.cc/tabs/s/superjoint_ritual/all_of_our_lives_will_get_tired_tab.html ]
    repeat                                                             
Eb|----------------------------------------------------------------------------------------|
Bb|----------------------------------------------------------------------------------------|
F#|----------------------------------------------------------------------------------------|
C#|--------------------------------------------------6--6--6--6--6--6----------------------|
G#|--------------------------------------------------4--4--4--4--4--4--4--6-6-6-6--4-6-6-6-|
C#|00000000-1-00000000-2p1-00000000-1-00000000-2p1-0-------------------2--4-4-4-4--2-4-4-4-|

                                                                       
Eb|-----------------------------------------------------------------------|
Bb|-----------------------------------------------------------------------|
F#|-----------------------------------------------------------------------|
C#|-----------------------------------------------------------------------|
G#|--------------------------------------------------8--8-8--8-8--8-8-8-8-|
C#|00000000-1-00000000-2p1-00000000-1-00000000-2p1-0-6--6-6--6-6--6-6-6-6-|

verse
Eb|--------------------------------|
Bb|--------------------------------|
F#|--------------------------------|
C#|---------------6--6--6--6---6-6-|
G#|-2------(2)----4--4--4--4---4-4-|
C#|-0------(0)---------------------|

Eb|-------------------------------------------------------------------|
Bb|-------------------------------------------------------------------|
F#|-------------------------------------------------------------------|
C#|-------------------------------------------------------------------|
G#|-2------(2)----2222222--0000000-----------44444444--2222222--00000-|
C#|-0------(0)----------------------2222222---------------------------|

Eb|--------------------------------|
Bb|--------------------------------|
F#|--------------------------------|
C#|---------------6--6--6--6---6-6-|
G#|-2------(2)----4--4--4--4---4-4-|
C#|-0------(0)---------------------|

Eb|--------------------------------------------------------|
Bb|--------------------------------------------------------|
F#|--------------------------------------------------------|
C#|---------------4----------------------------------------|
G#|-2------(2)----2--0-----4--2--0---2--0------4--2h3p2----|
C#|-0------(0)----------2-------------------2-----------2~-|

repeat
Eb|--------------------------------------------|
Bb|--------------------------------------------|
F#|--------------------------------------------|
C#|--------------------------------------------|
G#|--2--0-----4--2--0---2--0-----4--2h3p2------|
C#|--------2------------------2-----------2~~--|


2:28
     pm.......     .......    ........
Eb|-------------------------------------------|
Bb|-------------------------------------------|
F#|-------------------------------------------|
C#|-4-----------4-----------4-----------5-5-5-|
G#|-2--2-2-2-2--2--2-2-2-2--2--2-2-2-2--3-3-3-|
C#|-------------------------------------------|

repeat
Eb|--------------------------------------------|
Bb|--------------------------------------------|
F#|--------------------------------------------|
C#|--------------------------------------------|
G#|--2--0-----4--2--0---2--0-----4--2h3p2------|
C#|--------2------------------2-----------2~~--|

     pm.......     .......    ........
Eb|-------------------------------------------|
Bb|-------------------------------------------|
F#|-------------------------------------------|
C#|-4-----------4-----------4-----------5-5-5-|
G#|-2--2-2-2-2--2--2-2-2-2--2--2-2-2-2--3-3-3-|
C#|-------------------------------------------|


repeat
Eb|--------------------------------------------|
Bb|--------------------------------------------|
F#|--------------------------------------------|
C#|--------------------------------------------|
G#|--2--0-----4--2--0---2--0-----4--2h3p2------|
C#|--------2------------------2-----------2~~--|

     pm.......     .......    ........
Eb|-------------------------------------------|
Bb|-------------------------------------------|
F#|-------------------------------------------|
C#|-4-----------4-----------4-----------5-5-5-|
G#|-2--2-2-2-2--2--2-2-2-2--2--2-2-2-2--3-3-3-|
C#|-------------------------------------------|


repeat
Eb|--------------------------------------------|
Bb|--------------------------------------------|
F#|--------------------------------------------|
C#|--------------------------------------------|
G#|--2--0-----4--2--0---2--0-----4--2h3p2------|
C#|--------2------------------2-----------2~~--|
Comments