Superjoint Ritual - Absorbed Chords & Tabs

 

Absorbed Chords & Tabs

Superjoint Ritual Chords & Tabs

Version: 1 Type: Tab 0 ratings
1 star 2 stars 3 stars 4 stars 5 stars
comments

Absorbed Tab

Band- Superjoint Ritual
Song- Absorbed

Riff 1a

|---------------------------------------------------|
|---------------------------------------------------|
|---------------------------------------------------|
|--------------------------------0---0-0--0---------|
|-----2b-----2b-----2b-----2b----1---1-1--1---2b----|
|--1------1------1------1------0------------0----0--|


Riff 1b

|--------------------|-------|
|--------------------|-------|
|--------------------|-------|
|-0---0-0--0---------|-------|
|-1---1-1--1---2b----|-2b----|   after 2nd and 4th time play plus this ending
|------------0----0--|----0--|

Riff 2

|---------------------------|
|---------------------------|
|---------------------------|
|---------------------------|
|--4/5-2--4/5-2--5-5-5/6-2--|
|--2/3-0--2/3-0--3-3-3/4-0--|


Riff 3a
[ Tab from: http://www.guitartabs.cc/tabs/s/superjoint_ritual/absorbed_tab.html ]
|--------------------------------------|
|--------------------------------------|
|--------------------------------------|
|---8---7----8-7-6---------------------|
|-7-6-6-5--7-6-5-4-----7----7----7-10--|
|-5---4----5--------00---00---00-------|
                    ..   ..   ..

Riff3b            Riff 3b 2nd part
|----------------|--------------------------|
|----------------|--------------------------|
|----------------|--------------------------|
|----8-----7-----|8-7-6-----5----5----5-7---| the 2nd and 4th time play "8" instead of the "7"
|-7--6--6--5--7--|6-5-4---------------------|
|-5-----4-----5--|-------00---00---00-------|
                         ..   ..   ..

Riff 4

|--------------------------------|
|--------------------------------|
|--------------------------------|
|---------0---0-----------0---0--|
|-222222--1---1---222222--1---1--|
|-000000----------000000---------|
  ......          ......

Order:
Riff 1a  x1
Riff 1b  x10
Riff 2   x4
Riff 1b  x3
Riff 2   x7
Riff 3a  x3
Riff 3b 1st pt. x1
Riff 3b 2nd pt.  x4
Riff 1b  x4
Riff 4   x8
Outro with some distorted bass noises
Comments