Superjesus - Take It In The End Chords & Tabs

 

Take It In The End Chords & Tabs

Superjesus Chords & Tabs

Version: 1 Type: Tab 0 ratings
1 star 2 stars 3 stars 4 stars 5 stars
comments

Take It In The End Tab

Take it to the End - The Superjesus
Tabbed by: Shelby Lim
Tuning: Standard

~ = hammer on

intro:

e-------------3--------3------------------------------3--------3-----|
B-------------3--------3------------------------------3--------3-----|
G-------0-----0-----0--0-----------------------0------0-----0--0-----|
D-------2-----0-----2--0------------0--0~2-----2------0-----2--0-----|
A-----2-----2-----2----2--0~2--0~2------------2----2------2----2-----|
E---0-----3-----0------3--------------------0----3------0------3-----|

Play once for intro

Verse:

e--------------3------------3-------------3-------------3------------|
B--------------3------------3-------------3-------------3------------|
G-------0------0------0-----0------0------0------0------0------------|
D-------2------0------2-----0------2------0------2------0------------|
A-----2------2------2-----2------2------2------2------2--------------|
E---0------3------0-----3------0------3------0------3----------------|
x 2

Pre-Chorus

Just to let you know.... Just to let you know that I was right

e-------------------------3------------3-----------------------------|
B-------------------------3------------3-----------------------------|
G---2---4---5-------0-----0------0-----0---2---4---5-----------------|
D---2---4---5-------2-----0------2-----0---2---4---5-----------------|
A---0---2---3-----2-----2------2-----2-----0---2---3-----------------|
E---------------0-----3------0-----3---------------------------------|

Chorus
[ Tab from: http://www.guitartabs.cc/tabs/s/superjesus/take_it_in_the_end_tab.html ]
Could it be anybody... and I'm checkin it out 
e---3----3----3----3----3----3---------3-----------------------------|
B---3----3----3----3----3----3---------3-----------------------------|
G---0----2----0----2----0----2-------0-------------------------------|
D---2----0----2----0----2----0-----2---------------------------------|
A---2---------2---------2--------3-----------------------------------|
E---0---------0---------0--------------------------------------------|

Play first part of chorus again for
Anymore and you'll be learnin...
Then after would you say its just survival....

End of chorus:
And I'll take it to the end
e-----------3---3--------3-------------------------------|
B-----------3---3--------3-------------------------------|
G---------0------------0---------------------------------|
D-------2------------2-----------------------------------|
A-----3------------3-------------------------------------|
E--------------------------------------------------------|

Play verse part again for second verse

Play Pre-Chorus without the middle part

Play Chorus

Instrumental bit (after 2nd chorus)

e---3-----3-----3-----3------|
B---3-----3-----3-----3------|
G---0-----2-----0-----2------| x 4
D---0-----2-----2-----0------|
A---2-----0-----3------------|
E---3------------------------|

e-----------3---3--------3---|
B-----------3---3--------3---|
G---------0------------0-----| x 2
D-------2------------2-------|
A-----3------------3---------|
E----------------------------|

Play Chorus

Play instrumental bit but sing first verse again twice

end with

e-----------3---3--------3---|
B-----------3---3--------3---|
G---------0------------0-----| x 2
D-------2------------2-------|
A-----3------------3---------|
E----------------------------|
Comments