Superjesus - So Lonely Chords & Tabs

 

So Lonely Chords & Tabs

Superjesus Chords & Tabs

Version: 1 Type: Chords 0 ratings
1 star 2 stars 3 stars 4 stars 5 stars
comments

So Lonely Chords

   
-------------------------------------------------------------------------------
			     So Lonely - The Superjesus
-------------------------------------------------------------------------------

Tabbed by: Simon Anderson
Email: simon.anderson@airservices.gov.au

Tuning: Standard Tuning

This is the first song I've ever published a tab on, but I couldn't find any out there
on the
internet. Anyway, you can find how to play the chords at the bottom of this tab, as
well
as how to pick some of them.

If you have any suggestions, comments, corrections etc, let me know! Also, if anyone figures
out a different way to play using a capo or different tuning I would love to hear about it!

Enjoy!
Simon.


[INTRO]
Dm    C   Gsus2  Bb (Strum)
Oooo Oooo Oooo Oooo


[VERSE 1]
C                 Dm             DmSus4          Bb
 saw you walking away, I caught my breath

C                     Dm                  DmSus4       Bb C
 Without you hanging around, I've nothing left

         Bb       C    F               GMaj7
And i'll take you as I am (when you're leaving)

        Bb        C     F              GMaj7
But the dog won't understand (why your leaving)

C                             Dm                DmSus4       Bb  C
 I guess she'll sought it all out, the time will come


[CHORUS]

Dm                       C                 Gsus2
 So tell me you can stay, I get so lonely without you

   Bb
My feet won't leave the ground

Dm
 Can't stand to be away

C                    Gsus2       Bb (Strum)
 I get so lonely without you


[VERSE 2]

C                      Dm               DmSus4    Bb
 I'm not responsible now, I've lost my way

C                         Dm                DmSus4   Bb C
 Seems i've forgotten somehow what I should say

            Bb      C         F         GMaj7
And there's nothing we won't do (it's a given)

          Bb    C       F              GMaj7
And it's all because of you (now we're livin')

C                    Dm                 DmSus4    Bb C
 I'm gonna take you apart and show you why


[2ND CHORUS]

Dm                       C                 Gsus2
 So tell me you can stay, I get so lonely without you

   Bb
My feet won't leave the ground

Dm
 Can't stand to be away

C                    Gsus2       Bb
 I get so lonely without you  (I hate to be this way)

Dm
 Just spend a little while

C                   Gsus2
 I get so lonely without you

     Bb
This always brings me back

Dm
 Patience is not my style

C                    Gsus2          Bb
 I get so lonely without you...

Bb
and I do, and I do
[ Tab from: http://www.guitartabs.cc/tabs/s/superjesus/so_lonely_crd.html ]
                                       Strum
[SOLO]                                  |
                                        v
F  Eb/F  Bb  Ebm  Dm  Bb7  Eb  Ebm  B  C/Ab


[2ND CHORUS]

Dm                       C                 Gsus2
 Tell me you can stay, I get so lonely without you

   Bb
My feet won't leave the ground

Dm
 Can't stand to be away

C                    Gsus2       Bb
 I get so lonely without you  (I hate to be this way)

Dm
 Just spend a little while

C                   Gaad9
 I get so lonely without you

     Bb
This always brings me back

Dm
 Patience is not my style

C                    Gaad9          Bb
 I get so lonely without you

F    Eb/F   Bb    Bbm    F    Eb/F   Bb    Bbm

 I get so lonely without (Repeat)

C


[OUTRO]

Dm    C   Gsus2  Bb (Strum)
Oooo Oooo Oooo Oooo

CHORD INSTRUCTIONS 

 -  Chords used in verse and chorus. Some of them are shown how to pick

                   For the C in the 3rd and 4th lines in each verse
                  |
                  |
                  v

C    Dm    Bb     C
--3-----5-----6-----8-------|
--5-----6-----6-----8-------|
--5-----7-----7-----9-------|
--5-----7-----8-----10------|
--3-----5-----8-----10------|
--------------6-----8-------|


DmSus4
---------5------------------|
----6-------------6---------|
-------7-------7-----5------|
-5---------5----------------|
----------------------------|
----------------------------|


Gsus2
----------------5-----------|
-------8--------------------|
----7--------7--------------|
-5--------5-----------------|
----------------------------|
----------------------------|

GMaj7
----------------------------|
-12--------12---------------|
-------10-------------------|
----9-----------------------|
-10-------------------------|
----------------------------|

F
----------------------------|
--6-------6-----------------|
-------5--------------------|
-----7----------------------|
--8-------------------------|
----------------------------|

 -  Chords used during the Solo

F   Eb/F   Bb   Ebm   Dm   Bb7   Eb  Ebm  B  C/Ab
------------6-----6-----5----6----6----6--7--8---|
--6----6----6-----7-----6----6----8----7--7--9---|
--5----5----7-----8-----7----7----8----8--8--8---|
--7----7----8-----8-----7----6----8----8--9--10--|
--8----6----8-----6-----5---------6----6--9--11--|
------------6-----------------------------7--8---|


 -  Chords used just before the end when "I get so lonely without" is repeated

F    Eb/F   Bb    Bbm    F    Eb/F   Bb    Bbm
--8-----------6-----6-----8-----------6-----6---|
--10----10----6-----6-----10----10----6-----6---|
--10----10----7-----6-----10----10----7-----6---|
--10----10----8-----8-----10----10----8-----8---|
--8-----6-----8-----8-----8-----6-----8-----8---|
--------------6-----6-----------------6-----6---|
Comments