Superjesus - Shut My Eyes Chords & Tabs

 

Shut My Eyes Chords & Tabs

Superjesus Chords & Tabs

Version: 3 Type: Tab 0 ratings
1 star 2 stars 3 stars 4 stars 5 stars
comments

Shut My Eyes Tab

Shut My Eyes - The Superjesus
Tabbed by: Shelby Lim 
Tuning: DADGBE

Intro:

E--------------------------------|
B--------------------------------|
G--------4---------7-------------| x4
D--------4---------7-------------|
A--------2---------5-------------|
D--------------------------------|

Verse1:

Hey look around........
E--------------------------------|
B--------------------------------|
G--------4---------7-------------| x4 
D--------4---------7-------------|
A--------2---------5-------------|
D--------------------------------|

What did you say........
E--------------------------------|
B--------------------------------|
G---4----5----7------------------| x4
D---4----5----7------------------|
A---2----5----7------------------|
D--------------------------------|

I'm shaking............
E--------------------|
B--------------------|
G-----9--------------|
D-----9--------------|
A-----7--------------|
D--------------------|

Chorus:
Lay in dust around me......
E--------------------------------|
B--------------------------------|
G---4----7----9----5----7--------| x2
D---4----7----9----5----7--------|
A---2----5----7----5----7--------|
D--------------------------------|

Verse2:
[ Tab from: http://www.guitartabs.cc/tabs/s/superjesus/shut_my_eyes_tab_ver_3.html ]
I'm looking out, looking in......
E--------------------------------|
B--------------------------------|
G--------4---------7-------------| x4 
D--------4---------7-------------|
A--------2---------5-------------|
D--------------------------------|

I take a rest, take a breath......
E--------------------------------|
B--------------------------------|
G---4----5----7------------------| x4
D---4----5----7------------------|
A---2----5----7------------------|
D--------------------------------|

Pre-Chorus:
After all there's nothing left to say......
E--------------------------------|
B--------------------------------|
G----9-----5-----7-----5-----9---|
D----9-----5-----7-----5-----9---|
A----7-----5-----5-----3-----7---|
D--------------------------------|

Sleep beneath the thought of yesterday.

E--------------------|
B--------------------|
G-----5----7---------|
D-----5----7---------|
A-----5----5---------|
D--------------------|

Chorus

Instrumental

Chorus

End bit:

Shut my eyes..............
E--------------------------------|
B--------------------------------|
G--------4-----5-----x-----------| x4 
D--------4-----5-----x-----------|
A--------2-----5-----x-----------|
D--------------------------------|

Shut my eyes...............
E--------------------------------|
B--------------------------------|
G--------4-----5-----7-----------| x4 
D--------4-----5-----7-----------|
A--------2-----5-----7-----------|
D--------------------------------|
Comments