Superjesus - Secret Agent Man Chords & Tabs

 

Secret Agent Man Chords & Tabs

Superjesus Chords & Tabs

Version: 2 Type: Tab 0 ratings
1 star 2 stars 3 stars 4 stars 5 stars
comments

Secret Agent Man Tab

   
Song: Secret Agent Man (McLeod/Tennent)
Band: Superjesus
Album: Jet Age

Tuning: Db Ab Db Gb Bb Eb

This song is the latest single released off Jet Age after Gravity. This tab is for the single/radio edit 
is not the same as the album version. To play with the CD, tune your low E to D and then drop all strings 
1/2 step. Listen to the CD for timing. I've basically just written out the chords which Sarah and Tim play. Play the verse clean and for everything else use distortion.

Riff A
Eb----------------------------------|
Bb----------------------------------|
Gb----------------------------------|
Db-----12-h-13-p-12----10--12-p-10--|
Ab-----12-h-13-p-12----10--12-p-10--|
Db-----12-h-13-p-12----10--12-p-10--|
______________________________________________________________________________

Intro/Verse
Guitar 1 (lead) - Tim
Eb----------------------------------------------------------|
Bb----------------------------------------------------------|
Gb----------------------------------------------------------|
Db--------7---------7-------12-------then play riff A once--|
Ab--------7---------6-------12------------------------------|
Db--------7---------7-------12------------------------------|

Guitar 2 (rhythm) - Sarah
Eb--------------------------------------------------|
Bb--------------------------------------------------|
Gb--------------------------------------------------|
Db---------7---------7---------7-----------------5--|
Ab---------7---------6---------5-----------------3--|
Db---------7---------7---------0-----------------0--|
______________________________________________________________________________

Pre-Chorus
Guitar 1 (lead) - Tim
Eb-----------------------------------------------------------|
Bb-----------------------------------------------------------|
Gb--------5-------5--------7--------5------5-----7------5----|
Db--------3-------5--------7--------3------5-----7------3----|
Ab--------3-------3--------5--------3------3-----5------3----|
Db--------3--------------------------3--------------------3--|

Guitar 2 (rhythm) - Sarah
Eb---------------------------------------------------------|
Bb---------------------------------------------------------|
Gb-------10--------5------7--------10------5-----7----10---|
Db-------10--------5------7--------10------5-----7----10---|
Ab--------8--------3-------5--------8-------3-----5-----8--|
Db---------------------------------------------------------|
______________________________________________________________________________

Chorus
Guitar 1 (lead) - Tim
Eb------------------------------------------------|
Bb------------------------------------------------|
Gb-------9---------5-------7------5---------------|
Db-------7---------3-------7------3-------repeat--|
Ab-------7---------3-------5------3---------------|
Db-------7---------3---------------3--------------|
[ Tab from: http://www.guitartabs.cc/tabs/s/superjesus/secret_agent_man_tab_ver_2.html ]
Guitar 2 (rhythm) - Sarah
Eb------------------------------------------------|
Bb--------------------------3---------------------|
Gb-------2---------5-------2-------5--------------|
Db-------2---------3-------0-------3------repeat--|
Ab-------0---------3-------0-------3--------------|
Db-------x---------3-------0-------3--------------|
During the second chorus, hold the last chord while Sarah sings "the secret agent...the secret agent man"
______________________________________________________________________________

Solo
Guitar 1 (lead) - Tim
Eb------------------------------------------------------------------------------------------------------|
Bb------------------------------------------------------------------------------------------------------|
Gb-----------------5b--------------5b---------7b9------7p5---------------------------5b-------------5b--|
Db--------5h7------------5h7--------------------------------------7-----------5h7------------5h7--------|
Ab------------------------------------------------------------------------------------------------------|
Db------------------------------------------------------------------------------------------------------|

Guitar 1 (lead) - Tim
Eb----------------------------------------------------------------------------|
Bb----------------------------------------------------------------------------|
Gb---------7b9------7p5-------------------------------5b----------9-slide-12--|
Db------------------------------7------------5h7------------------------------|
Ab----------------------------------------------------------------------------|
Db----------------------------------------------------------------------------|

Guitar 2 (rhythm) - Sarah
Eb----------------------------------------------------------------------------------------|
Bb----------------------------------------------------------------------------------------|
Gb--------5-----------------------------5-------------------------------------------------|
Db--------3-------5------7-------------3------5-----7---------------10---hold-this-chord--|
Ab--------3-------3------5-------------3------3-----5----------------8--------------------|
Db--------3-----------------------------3-------------------------------------------------|
______________________________________________________________________________

Ending (play this in the last 2 bars)
Guitar 1 (lead) - Tim
Eb-----------------------------------------------------------------|
Bb-----------------------------------------------------------------|
Gb-------------------------------------------------5---------------|
Db--------7-------7-----12-----------------------3-------5------7--|
Ab--------7-------6-----12---play-riff-A-------3-------3------5----|
Db--------7-------7-----12-----------------------3-------3---------|


Guitar 2 (rhythm) - Sarah
Eb-------------------------------------------------------|
Bb-------------------------------------------------------|
Gb-------------------------------------------------------|
Db-------7-------7------7-----7-------10-----10------7---|
Ab-------7-------6------5-----3--------8------10------5--|
Db-------7-------7----------------------7-------7--------|

That's it. You can play the main riff at the D power chord (5th position) but you have to have fast 
For the lyrics, go to www.superjesus.com.au. Good Luck.

Tab by Daniel Gammon
Any Questions, Comments, Suggestions etc.
Email: whipping_synergy@yahoo.com
Comments