Superjesus - Now And Then Chords & Tabs

 

Now And Then Chords & Tabs

Superjesus Chords & Tabs

Version: 1 Type: Tab 0 ratings
1 star 2 stars 3 stars 4 stars 5 stars
comments

Now And Then Tab

Artist: Superjesus
Song: Now and then
Album: Sumo

Tuning: EADGBENote: / = slide up\ = slide down
I've written it for one guitar, so there are no Chris-high-solo-bits.
Intro:
|-----------------------------------|-----------------------------------|
|-----------------------------------|-----------------------------------|
|--------0---------------0----------|--------10--------------10\-7------|
|----0-------0-------3-------3---/--|----8-------8-------8--------------|
|----------------1----------------/-|6---------------5------------------|
|3----------------------------------|-----------------------------------|

|------------------------------------|----------------------------------|
|------------------------------------|----------------------------------|
|--------7---------------7---------/-|--------10--------------10--------|
|----5-------5-------5-------5----/--|----8-------8-------8-------8-----|
|3---------------3-----------------/-|6---------------6-----------------|
|------------------------------------|----------------------------------| (x 3)
Verse:
|------------------------------------|---------------------------------|
|------------------------------------|---------------------------------|
|--------0---------------0-----------|-------0---------------0---------|
|----0-------0-------3-------3-------|--------------------8-------8----|
|----------------1-------------------|3-/-4-----------6----------------|
|3-----------------------------------|---------------------------------|

|----------------------------------|--------------------------------|
|----------------------------------|--------------------------------|
|--------7---------------7---------|-------0---------------0--------|
|----5-------5-------5-------5-----|----8-------8-------8-------8---|
|3---------------3-----------------|-6---------------6--------------|
|----------------------------------|--------------------------------|

|----------------------------------|---------------------------------|
|----------------------------------|---------------------------------|
|--------0---------------0---------|--------0---------------0--------|
|----0-------0-------3-------3-----|--------------------8-------8----|
|----------------1-----------------|3-/-4-----------6----------------|
|3---------------------------------|---------------------------------|

|----------------------------------|---------------------------------|
|----------------------------------|7---7---7---7---7---7---7---7----|
|0---0---0---0---0---0---0---0-----|-7---7---7---7---7---7---7---7---|
|5---5---5---5---5---5---5---5-----|-7---7---7---7---7---7---7---7---|
|3---3---3---3---3---3---3---3-----|-5---5---5---5---5---5---5---5---|
|----------------------------------|---------------------------------| 
Chorus:

|----------------------------------|----------------------------------|
|----------------------------------|----------------------------------|
|--------10------------------------|----------------------------------|
|----8-------8-----------8---------|--------5---------------8---------|
|6-------------------8-------8-----|----5-------5-------8-------8-----|
|----------------6-----------------|-3---------------6----------------|

|-----------------------------------|---------------------------------|
|-----------------------------------|---------------------------------|
|--------10--------------10---------|--------7---------------7--------|
|----8-------8-------8-------8------|----5-------5-------5------5-----|
|6---------------5------------------|-3---------------3---------------|
|-----------------------------------|---------------------------------|
[ Tab from: http://www.guitartabs.cc/tabs/s/superjesus/now_and_then_tab.html ]
|----------------------------------|----------------------------------|
|----------------------------------|----------------------------------|
|--------10------------------------|----------------------------------|
|----8-------8-----------8---------|-------5---------------8----------|
|6-------------------8-------8-----|---5-------5-------8-------8------|
|----------------6-----------------|-3---------------6----------------|

|----------------------------------|----------------------------------|
|----------------------------------|----------------------------------|
|--------10--------------10--------|--7-------------------------------|
|----8-------8-------8-------8-----|--5-------------------------------|
|6---------------5-----------------|--3-----------------------1-------|
|----------------------------------|---------------------3------------|
Intro x 2
Verse x 1Chorus x 1 (but don't play last bar) 
Play:
|-----------------------------------|---------------------------------|
|-----------------------------------|---------------------------------|
|--------7---------------7----------|--------10--------------10-------|
|----5-------5-------5-------5------|----8-------8-------8-------8----|
|3---------------3------------------|-6---------------6---------------|
|-----------------------------------|---------------------------------|
Bridge: (strumming)
|---------------------------------|-----------------------------------|
|6--------------------------------|-8---------------------------------|
|6--------------------------------|-8---------------------------------|
|6--------------------------------|-8---------------------------------|
|4--------------------------------|-6---------------------------------|
|---------------------------------|-----------------------------------|

|------------------------------------|--------------------------------|
|------------------------------------|--------------------------------|
|--------15--------------15----------|--------10--------------10------|
|----13------13------13------13------|----10------10------8-------8---|
|11--------------10------------------|-8---------------6--------------|
|------------------------------------|--------------------------------|

|---------------------------------|-----------------------------------|
|6--------------------------------|-8---------------------------------|
|6--------------------------------|-8---------------------------------|
|6--------------------------------|-8---------------------------------|
|4--------------------------------|-6---------------------------------|
|---------------------------------|-----------------------------------|

|--------------------------------|------------------------------------|
|5-------------------------------|-5----------------------------------|
|5-------------------------------|-5----------------------------------|
|5-------------------------------|-5----------------------------------|
|3-------------------------------|-3----------------------------------|
|--------------------------------|------------------------------------|
Instrumental (same as Intro) x 2 (don't play last bar) 
Strum:
|--------------------------------|--------------------------------|
|7-------------------------------|-7------------------------------|
|7-------------------------------|-7------------------------------|
|7-------------------------------|-7------------------------------|
|5-------------------------------|-7------------------------------|
|--------------------------------|--------------------------------|
Chorus x 1
Outro:
|---------------------------------|------------------------------------|
|---------------------------------|------------------------------------|
|--------0---------------0--------|--------10--------------5-----------|
|----0-------0-------3-------3----|-/----8-------8-------5-------5-----|
|----------------1---------------/|6---------------3-------------------|
|3--------------------------------|------------------------------------| 
x 4
Finish on:
|--------------------------------|
|5-------------------------------|
|7-------------------------------|
|5-------------------------------|
|3-------------------------------|
|--------------------------------|
Comments