Superjesus - Im Stained Chords & Tabs

 

Im Stained Chords & Tabs

Superjesus Chords & Tabs

Version: 1 Type: Tab 0 ratings
1 star 2 stars 3 stars 4 stars 5 stars
comments

Im Stained Tab

   
Drop D tuning

INTRO:
E-|---------------------------------------------|-
B-|---------------------------------------------|-
G-|---------------------------------------------|-
D-|-9h11-11-9h11-11-9h11-11b(12)r11-11-11-11-11-|-(x 3)
A-|-0----0--0----0--0----0----------0--0--0--0--|-
D-|---------------------------------------------|-

E-|-----------------------|-
B-|-----------------------|-
G-|-----------------------|-
D-|-9h11-11-9h11-11--11~~-|-
A-|-0----0--0----0---0----|-
D-|-----------------------|-

E-|---------------------------|-
B-|---------------------------|-
G-|---------------------------|-
D-|-9h11-11-9h11-12-11-9h11-7-|-(x 4)
A-|-0----0--0----0--0--0----0-|-
D-|---------------------------|-

E-|-----------------------------------|-
B-|-----------------------------------|-
G-|----------9-9-9/11-11-11-11-11\9-9-|-
D-|-9h11-11---------------------------|-(x 3)
A-|-0----0---7-7-7/9--9--9--9---9\7-7-|-
D-|-----------------------------------|-

E-|--------------|-
B-|--------------|-
G-|-7------------|-
D-|-7-(let ring)-|-
A-|-5------------|-
D-|-0------------|-

E-|----------------------------------------|-
B-|----------------------------------------|-
G-|-4/6-6-6--6/9-9-9--10-10-10-10--9-9-9-9-|-
D-|----------------------------------------|-(x 4)
A-|-2/4-4-4--4/7-7-7--9--9--9--9---7-7-7-7-|-
D-|----------------------------------------|-

E-|-------------------------------------|-
B-|-------------------------------------|-
G-|-------------------------------------|-
D-|-------------------7/9-9-9-9-9-9-9-9-|-(x 8)
A-|-7h9-9-9--7h9-9-9--7/9-9-9-9-9-9-9-9-|-
D-|-0---0-0--0---0-0--7/9-9-9-9-9-9-9-9-|-

RIFF PLAYED WITH ABOVE PROGRESSION:
E-|-----------------|-
B-|-------3---2-----|-
G-|-----2---2---2---|-
D-|-0h2-----------2-|-(x 4)
A-|-----------------|-
D-|-----------------|-

E-|---------------------------------------------|-
B-|---------------------------------------------|-
G-|---------------------------------------------|-
D-|-9h11-11-9h11-11-9h11-11b(12)r11-11-11-11-11-|-(x 3)
A-|-0----0--0----0--0----0----------0--0--0--0--|-
D-|---------------------------------------------|-

E-|-----------------------|-
B-|-----------------------|-
G-|-----------------------|-
D-|-9h11-11-9h11-11--11~~-|-
A-|-0----0--0----0---0----|-
D-|-----------------------|-

VERSE RIFF:
E-|-----------------------|-
B-|-----------------------|-
G-|-----------------------|-
D-|-9h11-11-9h11-12-12/14-|-(x 8)
A-|-0----0--0----0--0-----|-
D-|-----------------------|-

E-|--------------|-
B-|--------------|-
G-|-7------------|-
D-|-7-(let ring)-|-(one guitar strums, another feedbacks in key of D)
A-|-5------------|-
D-|-0------------|-
[ Tab from: http://www.guitartabs.cc/tabs/s/superjesus/im_stained_tab.html ]
CHORUS:
E-|--------------------------------------------------------------|-
B-|--------------------------------------------------------------|-
G-|------------------11~------11~---------------11~----------11~-|-
D-|-7---4--4-4---0-0-0--0-0-0-0----7---4--4-4---0-0-0--0-0-0-0---|-
A-|-7---4--4-4---0-0----0-0-0------7---4--4-4---0-0----0-0-0-----|-
D-|-7---4--4-4---0-0----0-0-0------7---4--4-4---0-0----0-0-0-----|-

E-|-------------------------------------------------|-
B-|-------------------------------------------------|-
G-|-------------------------------------------------|-
D-|-7---4--4-4--------------------7/9-9-9-9-9-9-9-9-|-
A-|-7---4--4-4--7h9-9-9--7h9-9-9--7/9-9-9-9-9-9-9-9-|-
D-|-7---4--4-4--0---0-0--0---0-0--7/9-9-9-9-9-9-9-9-|-

E-|-------------------------------------|-
B-|-------------------------------------|-
G-|-------------------------------------|-
D-|-------------------7/9-9-9-9-9-9-9-9-|-(x 3)
A-|-7h9-9-9--7h9-9-9--7/9-9-9-9-9-9-9-9-|-
D-|-0---0-0--0---0-0--7/9-9-9-9-9-9-9-9-|-

E-|-------------------|-
B-|-------------------|-
G-|--------9b(11)-9-7-|-
D-|-------------------|-
A-|-7h9-9-------------|-
D-|-0---0-------------|-

BRIDGE CHORDS:
E-|------------------|---------|-
B-|------------------|---------|-
G-|------------------|-------2-|-
D-|-7-5---4---9---0--|-7-5---0-|-
A-|-7-5---4---9---0--|-7-5---0-|-
D-|-7-5---4---9---0--|-7-5---0-|-

SOLO OVER THESE CHORDS:    
B  D   A(2 bars)
E-|----------|-         
B-|----------|-   
G-|--------6-|-
D-|-9--12--7-|-(x 4)
A-|-9--12--0-|- 
D-|-9--12----|-

On the last A (2nd bar) in the solo, play this:
E-|-------------------|-
B-|-------------------|-
G-|-------------------|-
D-|-9/11-11-11-11-9-7-|-
A-|-0-----------------|-
D-|-------------------|-

E-|--------------|-
B-|--------------|-
G-|-7------------|-
D-|-7-(let ring)-|-
A-|-5------------|-
D-|-0------------|-
CHORUS:

E-|--------------------------------------------------------------|-
B-|--------------------------------------------------------------|-
G-|------------------11~------11~---------------11~----------11~-|-
D-|-7---4--4-4---0-0-0--0-0-0-0----7---4--4-4---0-0-0--0-0-0-0---|-
A-|-7---4--4-4---0-0----0-0-0------7---4--4-4---0-0----0-0-0-----|-
D-|-7---4--4-4---0-0----0-0-0------7---4--4-4---0-0----0-0-0-----|-

E-|-------------------------------------------------|-
B-|-------------------------------------------------|-
G-|-------------------------------------------------|-
D-|-7---4--4-4--------------------7/9-9-9-9-9-9-9-9-|-
A-|-7---4--4-4--7h9-9-9--7h9-9-9--7/9-9-9-9-9-9-9-9-|-
D-|-7---4--4-4--0---0-0--0---0-0--7/9-9-9-9-9-9-9-9-|-

E-|-------------------------------------|-
B-|-------------------------------------|-
G-|-------------------------------------|-
D-|-------------------7/9-9-9-9-9-9-9-9-|-(x 7)
A-|-7h9-9-9--7h9-9-9--7/9-9-9-9-9-9-9-9-|-
D-|-0---0-0--0---0-0--7/9-9-9-9-9-9-9-9-|-

E-|-------------------|-
B-|-------------------|-
G-|--------9b(11)-9-7-|-
D-|-------------------|-
A-|-7h9-9-------------|-
D-|-0---0-------------|-
Comments