Superjesus - Gravity Chords & Tabs

 

Gravity Chords & Tabs

Superjesus Chords & Tabs

Version: 2 Type: Tab 0 ratings
1 star 2 stars 3 stars 4 stars 5 stars
comments

Gravity Tab

   
Title GRAVITY
Artist THE SUPERJESUS (Sarah McLeod & Tim Henwood)
Album JET AGE
Year 2000
Tab Sean Maynard

This is my tab for "Gravity" which took me two days
to complete which i think sounds exact to the CD.
The tab has all parts, including the solo and fills,
and the time has been indicated where to play them.
* To get a similar effect on the intro/verse/outro,
  turn the tone down as low as possible and use very
  little gain and use the pickup closest to the
  fretboard and it will sound almost perfect.
* Make note of the tuning.
__________________________________________________
DROP D TUNING - |D|A|D|G|B|E|

INTRO/VERSE/OUTRO repeat 7x for intro, 6x for verse
/-----------------------------------------------------\
|-----------------------------------------------------|
|-----------------------------------------------------|
|--5/7--7-7-7-/--10-10-10-10-\-3--3-3-5--5-5-5-5-3-3--|
|--3/5--5-5-5-/--8--8--8--8--\-3--3-3-3--3-3-3-3-3-3--|
\--3/5--5-5-5-/--8--8--8--8--\-3--3-3-3--3-3-3-3-3-3--/

Guitar 2 Fill (@ 0.32 / 1.31)
/-------------------\
|----------------6--|
|------7---------5--|
|----7---7-------3--|
|--5---------5---3--|
\----------------3--/

CHORUS x2
  Bb F C D C*
/-----------------------\
|-----------------------|
|--3---------5----7--5--| * Play the second C
|--3----3----5----7--5--| on first time only
|--1----3----3----5--3--|
\-------3---------------/
[ Tab from: http://www.guitartabs.cc/tabs/s/superjesus/gravity_tab_ver_2.html ]
Guitar 2 Fill (@ 0.40 / 0.51 / 1.40 / 1.50 / 2.44)
/-------------\
|-------------|
|-------------|
|--5-3-----3--| 
|------3-5----|
\-------------/

END OF CHORUS
Guitar 1
/----------\
|----------|
|--3-------|
|--3----3--| 
|--1----3--|
\-------3--/

Guitar 2 Fill (@ 1.00 / 2.00 / 3.24)
/--------------------\
|---------------6-8--|
|------7-------------|
|----7-------/8------|
|--5-----5\3---------|
\--------------------/

BRIDGE 3x
/-----------------------------------\
|-----------------------------------|
|------------5/7---5-5---5----------| Play () notes on
|--5-5--3-3--5/7---5-5---5---(5-3)--| last time only
|--5-5--3-3--3/5---3-3---3---(5-3)--|
\--5-5--3-3------------------(5-3)--/

SOLO
Guitar 1
  Bb F C D C*
/------------------------\
|------------------------|
|--3---------5----7---5--| * Play the second C
|--3----3----5----7---5--| on first time only
|--1----3----3----5---3--|
\-------3----------------/

Guitar 2
/--------------|---------------------------\
|--------------|---------------------------|
|--/7~~~--7-5--|-----5---------------------|
|--------------|--/7---7p5---5h7-5---------|
|--------------|----------8---------5h7-8--|
\--------------|---------------------------/

/--------------------------\
|--------------------------| Play solo 2x
|--------------------------|
|---------5--7p5-----------| Play () notes on
|--5h7-8--------8-(/10-8)--| repeat only
\--------------------------/

(@ 2.25 / 2.55) (sounds like a drill, almost inaudible)
/--------------\
|--/15-15-\\6--|
|--------------|
|--------------|
|--------------|
\--------------/

Comments