Superjesus - Gravity Chords & Tabs

 

Gravity Chords & Tabs

Superjesus Chords & Tabs

Version: 1 Type: Tab 0 ratings
1 star 2 stars 3 stars 4 stars 5 stars
comments

Gravity Tab

   
GRAVITY
BY THE SUPERJESUS
TUNING DADGBE(DROP D)
SLIDE UP=/
SLIDE DOWN=\

RIFF 1
|-3-/5-5-5-/8--8--8--8--\3-3-3-3-3-3-3-3-3-|
|-3-/5-5-5-/8--8--8--8--\3-3-3-3-3-3-3-3-3-|
|-5-/7-7-7-/10-10-10-10-\3-3-3-5-5-5-5-5-3-|
|------------------------------------------|
|------------------------------------------|
|------------------------------------------|

CHORUS
(BIT DIFFIRENT SECOND TIME THROUGH PROGRESSION,JUST THE LAST CHORD)
|----3-----------|
|-1--3--3--5--3--|
|-3--3--5--7--5--|
|-3-----5--7--5--|
|----------------|
|----------------|

LEAD BIT AFTER CHORUS
|---------------------------|
|---------------------------|
|---------------------------|
|-7--10-----7--5--7--10-----|
|--------8---------------8--|
|---------------------------|

[ Tab from: http://www.guitartabs.cc/tabs/s/superjesus/gravity_tab.html ]
INTERLUDE
|-5-5-3--/5-5-5-5-5-5--3-3-3-|
|-5-5-3--/7-7-7-7-7-7--5-5-5-|
|-5-5-3----------------------|
|----------------------------|
|----------------------------|
|----------------------------|

SOLO
|--------------------------------------------------------------------------------------------|
|--------------------------------------------------------------------------------------------|
|-------7---7--5-3-5/7-5-5-3----3-3-3-5-7-5-3--------7---7--5-3-5/7-5-5-3--3-3-3-5-7-5-3-5-3-|
|-7-7-5---5-----------------------------------/7-7-5---5-------------------------------------|
|--------------------------------------------------------------------------------------------|
|--------------------------------------------------------------------------------------------|

INTURLUDE2      LAST TIME
|----0-------|
|-1--0-------|
|-3--0-------|
|-3----------|
|------------|
|------------|

SONG SETUP:
RIFF 1     X7
CHORUS     X2
RIFF 1     X6
CHORUS     X2
INTERLUDE1 X3
SOLO
CHORUS     X2
INTERLUDE2 X4
RIFF 1     X4

any questions.......add me on msn or e-mail m_c_is@hotmail.com
Comments