Superjesus - Gravity Chords & Tabs

 

Gravity Chords & Tabs

Superjesus Chords & Tabs

Version: 1 Type: Bass Tab 0 ratings
1 star 2 stars 3 stars 4 stars 5 stars
comments

Gravity Bass Tab

   
Bass Tab: Gravity
Artist: The SuperJesus
Album: Jet Age
Year: 2000
Tab Author: Renato Repetto (Renato_Repetto@hotmail.com)

Words and Music by The SuperJesus
If you have any comments, questions or
whatever, email me.

      h - hammer on
      p - pull off
      b - bend string up
      r - release bend
      / - slide up
      \ - slide down
      v - vibrato (sometimes written as ~)
      t - tap (with strumming hand)
      x - muted, struck string


Tuning: E-A-D-G-B-E


INTRO/VERSE/OUTRO:

G|---------------------------------------------------
D|---------------------------------------------------
A|---------------------------------------------------
E|--1/3--3-3-/--6--6--6--6--\-1--1-1-1--1-1-1-1-1-1--

  ---------------------------------------------------
  ---------------------------------------------------
  ---------------------------------------------------
  --1/3--3-3-/--6--6--6--6--\-1--1-1-1--1-1-1-1-1-1--

  ---------------------------------------------------|
  ---------------------------------------------------|
  ----------------------------------------------3----|
  --1/3--3-3-/--6--6--6--6--\-1--1-1-1--1-1-1-1---1--|


CHORUS 1:

"And I can tell you...."

G|---------------------------|-------------------
D|------------0--------------|---------0-0-0-----
A|--1--1--1-3-------------0--|-3-3-0-3--------3--
E|--------------1--1--0-1----|-------------------

  ---------------------------|--------------------------
  ------------0--------------|---------0-0-0------------
  --1--1--1-3-------------0--|-3-3-0-3-------0-1-1-1-1--
  --------------1--1--0-1----|--------------------------

  -------------|
  --1----------|
  ----2-3--3---|
  -------------|


BRIDGE:  (Repeat 4 Times)
[ Tab from: http://www.guitartabs.cc/tabs/s/superjesus/gravity_btab.html ]
G|-------|---------------------
D|-------|---------------------
A|-------|-3--h5-5-5-5--3-3-3--
E|--3--1-|---------------------


SOLO:

G|---------------------------|-------------------
D|------------0--------------|---------0-0-0-----
A|--1--1--1-3-------------0--|-3-3-0-3--------3--
E|--------------1--1--0-1----|-------------------

  ---------------------------|-------------------|
  ------------0--------------|---------0-0-0-----|
  --1--1--1-3-------------0--|-3-3-0-3--------3--|
  --------------1--1--0-1----|-------------------|


CHORUS 2:

"And I can tell you...."

G|---------------------------|-------------------
D|------------0--------------|---------0-0-0-----
A|--1--1--1-3-------------0--|-3-3-0-3--------3--
E|--------------1--1--0-1----|-------------------

  ---------------------------|----------------
  ------------0--------------|--------0-0-0---
  --1--1--1-3-------------0--|-3-3-0-3--------
  --------------1--1--0-1----|----------------

  ------------------|------------------------
  ------------------|---------5-h7-7-7-7-p5--
  --1-1-1-1-1-1-1-3-|------------------------
  ------------------|-1-1-1-1----------------

  ------------------|----------------------------
  ------------------|-------------5-h7-7-7-7-p5--
  ------------------|----------------------------
  --8-8-8-8-8-8-8-8-|-10-10-10-10----------------

  ------------------|------------------------
  ------------------|---------5-h7-7-7-7-p5--
  --1-1-1-1-1-1-1-3-|------------------------
  ------------------|-1-1-1-1----------------

  -------------------|----|
  -------------------|----|
  -------------------|-5--|
  --6-6-6-6-6-6-6-8--|----|


Song flow:

- Intro
- Verse
- Chorus 1
- Verse
- Chorus 1
- Bridge
- Solo
- Chorus 2
- Outro


It took me a few hours to transcript this cool song. If you have any 
requests, feel free to
e-mail me. Enjoy!
Comments