Superheist - Two Faced Chords & Tabs

 

Two Faced Chords & Tabs

Superheist Chords & Tabs

Version: 1 Type: Tab 0 ratings
1 star 2 stars 3 stars 4 stars 5 stars
comments

Two Faced Tab

   
Two Faced (Check Your Head Up)
S U P E R H E I S T
Tabbed by Aaron Bridgeman (rokken@sicness.net)

http://bogans.arecool.net

Just got the guitar bits, can't get the keyboard lead bit right.

TUNING: (B E A D F# B) (or use A 7 string)

MAIN GUITAR PART:
b |---------------|
F#|---------------|
D |---------------|
A |-7-------------|
E |-5---7-8---5---|
B |-----5-6---3---|
[ Tab from: http://www.guitartabs.cc/tabs/s/superheist/two_faced_tab.html ]
CHORUS:
b |-----------------------------------------------------------------|
F#|-----------------------------------------------------------------|
D |-----------------------------------------------------------------|
A |-----------------------------------------------------------------|
E |-5-5-5-5-5-5-5-5-5-5-5-5-7-7-7-7-2-2-2-2-2-2-2-2-2-2-2-2-2-2-2-2-|
B |-3-3-3-3-3-3-3-3-3-3-3-3-5-5-5-5-0-0-0-0-0-0-0-0-0-0-0-0-0-0-0-0-|

Play it palm muted first then open it up. Simple as. There you go.
Comments