Superheist - Two Faced Check Your Head Up Chords & Tabs

 

Two Faced Check Your Head Up Chords & Tabs

Superheist Chords & Tabs

Version: 1 Type: Tab 0 ratings
1 star 2 stars 3 stars 4 stars 5 stars
comments

Two Faced Check Your Head Up Tab

   
Two Faced (Check Your Head Up)
S U P E R H E I S T
Tabbed by Aaron Bridgeman (rokken@sicness.net)

http://bogans.arecool.net

Just got the guitar bits, can't get the keyboard lead bit right.

Drop D tuning "D A D G B e"
[ Tab from: http://www.guitartabs.cc/tabs/s/superheist/two_faced_check_your_head_up_tab.html ]
Main guitar part. Pretty simple...
e|---------------------------|
B|---------------------------|
G|---------------------------|
D|---------------------------|
A|-7------2--3-------0-------|
D|-7------2--3-------0-------|

"Here comes the rain" bit.
e|------------------------------------------------->
B|------------------------------------------------->
G|------------------------------------------------->
D|------------------------------------------------->
A|-3-3-3-3-3-3-3-3-3-3-3-3-3-3-3-3-5-5-5-5-5-5-5-5->
D|-3-3-3-3-3-3-3-3-3-3-3-3-3-3-3-3-5-5-5-5-5-5-5-5->

Comments