Superheist - Step Back Chords & Tabs

 

Step Back Chords & Tabs

Superheist Chords & Tabs

Version: 1 Type: Bass Tab 0 ratings
1 star 2 stars 3 stars 4 stars 5 stars
comments

Step Back Bass Tab

   
Band: Superheist
Song: Step Back

INTRO 
G|--------------------------------| 
D|--------------------------------| 
A|--------------------------------| 
E|--------------------------------| 
B|-4-4-4----4-4-4-4----4-4-4-| 

VERSE 
G|----------------------------------------------------|----| 
D|----------------------------------------------------|----| 
A|----------------------------------------------------|----| 
E|----------------------------------------------------|----| 
B|-4-5-5-5----4-5-5-5----4-5-5-5----4-5-5-5-5-5-5-5-5-|-/9-| 

CHORUS 
G|---------------------------------------------------| 
D|---------------------------------------------------| 
A|---------------------------------------------------| 
E|-7-7-7-7-7-7-7-7-----------------------------------| 
B|------------------7-7-7-7-7-7-7-7--9-9-9-9-9-9-9-9-| 

G|----------------------|
D|----------------------| 
A|----------------------| 
E|----------------------| 
B|-5-5-5-5--0-2-0-0-2-0-| 
[ Tab from: http://www.guitartabs.cc/tabs/s/superheist/step_back_btab.html ]
BRIDGE 1 
G|---------------------------------------------------------------| 
D|---------------------------------------------------------------| 
A|---------------------------------------------------------------| 
E|---------------------------------------------------------------|
B|-9-9----5-5----7-7-7-7-7-7-7-7----7-7----3-3-----5-5-5-5-5-5-5-| 

BRIDGE 2 
G|----------------------------------------------------------------| 
D|----------------------------------------------------------------| 
A|----------------------------------------------------------------| 
E|-0-0-0-0-0-0-0-0-0-0-0-0-0-0-0-0/12-12-12-12-12-12-12-12-12-12--| 
B|----------------------------------------------------------------| 

OUTRO
G|----------------------------------------------------------------| 
D|----------------------------------------------------------------| 
A|----------------------------------------------------------------| 
E|-0-0-0-0-0-0-0-0-0-0-0-0-0-0-0-0-0-0-0-0-0-0-0-0-0-0-0-0-0-0-12-| 
B|----------------------------------------------------------------|
Comments