Superheist - Slide Chords & Tabs

 

Slide Chords & Tabs

Superheist Chords & Tabs

Version: 1 Type: Bass Tab 0 ratings
1 star 2 stars 3 stars 4 stars 5 stars
comments

Slide Bass Tab

SUPERHEIST
SLIDE
Album - The Prize Recruit
Tabbed by Nick Amos (nick_the_flatlander@hotmail.com)

/, \ = slide up, down

INTRO/VERSE (With distortion)
G|-----------------|-------------------|
D|-----------------|-------------------|
A|-----9--10-------|-----9--10--5------|
E|-8------------10-|-8---------------9-|
B|-----------------|-------------------|
[ Tab from: http://www.guitartabs.cc/tabs/s/superheist/slide_btab.html ]
G|----------------------------------|
D|----------------------------------|
A|--------/11-11-11-11-11-11-11-11\-|
E|----2-3---------------------------|
B|-0--------------------------------|

CHORUS
G|---------------------------------------------------------------------|
D|---------------------------------------------------------------------|
A|-------------------/10-10-10-10-11-11-11-11-11-11-11-11-11\555555555-|
E|-5555555555555555----------------------------------------------------|
B|---------------------------------------------------------------------|

OUTRO
G|-----------|
D|-----------|
A|-----9--10-|
E|-8---------|
B|-----------|
Comments