Superheist - Happy Wasted Chords & Tabs

 

Happy Wasted Chords & Tabs

Superheist Chords & Tabs

Version: 1 Type: Tab 0 ratings
1 star 2 stars 3 stars 4 stars 5 stars
comments

Happy Wasted Tab

   
Happy Wasted
S U P E R H E I S T
Tabbed by Aaron Bridgeman (rokken@sicness.net)

http://bogans.arecool.net

TUNING: Down 2 1/2 steps (B E A D F# B)

KEY:
pm. = palm mute
^   = bend up
~   = sustain

VERSE:
b |-----------------------------|
F#|-----------------------------|
D |-----------------------------|
A |-----------------------------|
E |-2------2------2------2-3~~--|
B |-0------0------0------0-1~~--|
[ Tab from: http://www.guitartabs.cc/tabs/s/superheist/happy_wasted_tab.html ]
PRE-CHORUS:
b |----------------------------------|
F#|----------------------------------|
D |----------------------------------|
A |----------------------------------|
E |-9-----9-----8---9-----9-----10---|
B |---8-7---8-7---7---8-7---8-7----7-|
pm    . .   . .   .   . .   . .    .
Palm mute first, then open it up

CHORUS:
b |---------------|
F#|---------------|
D |---------------|
A |---------------|
E |-12---10---9-5-|
B |-10---8----7-6-|

BRIDGE:
b |----------------|
F#|----------------|
D |----------------|
A |----------------|
E |----------------|
B |-2^-0-2^-0-2^-0-|
listen to song for timing

teenage angst and you're out tonight...
Comments