Superheist - Burnt Out Souls Chords & Tabs

 

Burnt Out Souls Chords & Tabs

Superheist Chords & Tabs

Version: 1 Type: Bass Tab 0 ratings
1 star 2 stars 3 stars 4 stars 5 stars
comments

Burnt Out Souls Bass Tab

   
Song: Burnt Out Souls
Artist: Superheist
Album: The Prize Recruit

Intro:

G:-------------------------------------------------------------|
D:-------------------------------------------------------------|
A:-------------------------------------------------------------|
E:--8-8-10-10-8-8-10-10-8--8-8-8-10-10-8-8-10-10---------------|
A:-------------------------------------------------------------|

Main Riff: Slap the open notes and pop the others

G:-----------------------7--7----------------------------------|
D:-----------------------6--6----------------------------------|
A:-------------------------------------------------------------|
E:-------------------------------------------------------------|
A:-0-0-0--0-0-0--0-0-------------------------------------------|

Verse:

G:-------------------------------------------------------------|
D:-------------------------------------------------------------|
A:-----------------------3h4-----------------------------------|
E:------------------------------3------------------------------|
A:-0-0-0--0-0-0--0-0-------------------------------------------|

Pre Chorus: Slap the open notes and pop the others
[ Tab from: http://www.guitartabs.cc/tabs/s/superheist/burnt_out_souls_btab.html ]
G:----7------7-7~~~-------------------------------------------------|
D:----6------6-6~~~-------------------------------------------------|
A:------------------------------------------------------------------|
E:------------------------------------------------------------------|
A:-0------0---------------------------------------------------------|

Chorus A:

G:----------------------------------------------------------------------------------|
D:----------------------------------------------------------------------------------|
A:----------------------------------------------------------------------------------|
E:--6-6-6-6-6-6-6-6-6-6-6-6-8-8-8-8-3-3-3-3-3-3-3-3-3-3-3-3-1-1-1-1-----------------|
A:----------------------------------------------------------------------------------|

Chorus B:

G:-------------------------------------------------------------|
D:-------------------------------------------------------------|
A:-------------------------------------------------------------|
E:--6--6---8-8---3--3---1-1------------------------------------|
A:-------------------------------------------------------------|

Bridge:
Same as intro

Song Layout:

Intro x2
Main Riff x8
Verse x4
Pre Chorus x4
Main Riff x2
Verse x4
Pre Chorus x4
Chorus A x2
Chorus B x2
Main Riff x4
Verse x4
Pre Chorus x4
Chorus A x2
Chorus B x2
Bridge
Chorus A x2
Chorus B x2
Main Riff but instead of A:-0-0-0--0-0-0--0-0 just slap A:-0 and let it ring and then 
pop the other notes
Main Riff x4
Comments