Superheist - Bullet Chords & Tabs

 

Bullet Chords & Tabs

Superheist Chords & Tabs

Version: 1 Type: Bass Tab 0 ratings
1 star 2 stars 3 stars 4 stars 5 stars
comments

Bullet Bass Tab

SUPERHEIST
BULLET
Album - The Prize Recruit
Tabbed by Nick Amos (nick_the_flatlander@hotmail.com)

/, \ = slide up, down

INTRO
G|----------------------------------|---------------------------------|
D|----------------------------------|---------------------------------|
A|----------------------------------|---------------------------------|
E|----------555-55------------------|----------555-55/888-88----------|
B|-333-333-----------666-66--333333-|-333-333-----------------333-333-|
[ Tab from: http://www.guitartabs.cc/tabs/s/superheist/bullet_btab.html ]
VERSE
G|--------------------|
D|--------------------|
A|--------------------|
E|-------22-----------|
B|-22-2-----22-3-33-2-|

CHORUS
G|---------------------------------------------|
D|---------------------------------------------|
A|---------------------------------------------|
E|-7777777777\5555555555\3333333333\2222222222-|
B|---------------------------------------------|

OUTRO
G|---------------------|
D|---------------------|
A|---------------------|
E|-------22---------0--|
B|-22-2------22-322----|
Comments