Superheist - 7 Years Chords & Tabs

 

7 Years Chords & Tabs

Superheist Chords & Tabs

Version: 1 Type: Tab 1 rating
1 star 2 stars 3 stars 4 stars 5 stars
comments

7 Years Tab

   
SONG: 7 years
BAND: SUPERHEIST
TRANSCRIBER: Ashley MacDonald
DATE: 23/06/02

I was suprised to see that this song hadn't been 
tabbed out already
I will be the very first person to tab it
SUPERHEIST FRIGGIN' KICK ASS AND SO DOES THIS SONG!!!!
This tab is entirely my own work... 
it took me an afternoon to tab it.

PLAYED IN STANDARD TUNNING ON A 7-STRING

KEY 

 h  hammer on
 /  slide
 x  mute chord

INTRO,VERSE/RIFF1
e|--------------------------------
b|--------------------------------
G|--------------------------------
D|-4-4-4-4-4h5-5-4-2-2h4-4--5-4-2-
A|-2-2-2-2-2-2-2-2-2-2-2-2--2-2-2-
E|--------------------------------
B|--------------------------------
                                        X3
e|--------------------------------
b|--------------------------------
G|--------------------------------
D|--------------------------------
A|-5-5-5-5-5-5-5/4-4-4-4-4-4-4----
E|-3-3-3-3-3-3-3/2-2-2-2-2-2-2----
B|--------------------------------
[ Tab from: http://www.guitartabs.cc/tabs/s/superheist/7_years_tab.html ]
CHORUS/RIFF2
e|--------------------------------------
b|--------------------------------------
G|--------------------------------------
D|----------7--7--7--------5--5--5------
A|-5--5-5-5-7--7--7-2--2-2-5--5--5------
E|-5--5-5-5-5--5--5-2--2-2-3--3--3------
B|-3--3-3-3---------0--0-0--------------
                                              X2
e|--------------------------------------
b|--------------------------------------
G|--------------------------------------
D|----------7--7--7--------5-5-5-5------
A|-5--5-5-5-7--7--7-2--2-2-5-5-5-5-7-7-5
E|-5--5-5-5-5--5--5-2--2-2-3-3-3-3-7-7-5
B|-3--3-3-3---------0--0-0---------5-5-3

e|---------------
b|---------------
G|---------------
D|--------------- 
A|-2-------------
E|-2--LET-RING---
B|-0-------------

PLAY INTRO,VERSE/RIFF1  X2
PLAY CHORUS/RIFF2  X2

FILL/RIFF3
e|---------------------------------
b|---------------------------------
G|---------------------------------
D|-----------------4-4-----5-5/4-4- X2
A|-2-2-2-x-2-2-2-x-4-4-4-4-5-5/4-4-
E|-2-2-2-x-2-2-2-x-2-2-4-4-3-3/2-2-
B|-0-0-0-x-0-0-0-x-----2-2---------

FILL/RIFF4
e|-------------------------------------------
b|-------------------------------------------
G|-------------------------------------------
D|---------4-4-----5-5----------------------- X1
A|-2-2-2-x-4-4-4-4-5-5-2-2-2-x-2-2-2-x-2-2-2-
E|-2-2-2-x-2-2-4-4-3-3-2-2-2-x-2-2-2-x-2-2-2-
B|-0-0-0-x-----2-2-----0-0-0-x-0-0-0-x-0-0-0-

PLAY CHORUS/RIFF2 X3
PLAY FILL/RIFF3 X3
PLAY FILL/RIFF4 X1
END.

Yeah, so there ya go... another fuck'n awesome song from
SUPERHEIST, that kick ass! This sounds pretty dam right 
to me.

            ~BY ASHLEY MACDONALD~

D.W. NORTON can contact me at
www.glencar@omcs.com.au
Comments