Superheist - 1 4 U Chords & Tabs

 

1 4 U Chords & Tabs

Superheist Chords & Tabs

Version: 2 Type: Tab 0 ratings
1 star 2 stars 3 stars 4 stars 5 stars
comments

1 4 U Tab

   
1.4.U.

S U P E R H E I S T

Tabbed By Aaron Bridgeman (rokken@sicness.net)


http://bogans.arecool.net

TUNING: (B E A D F# B) (or use A 7 string)

KEY:
pm = palm mute
h  = hammer on
p  = pull off
~  = vibrato
/  = slide up
\  = slide down

INTRO 1:
b |----------------------------|
F#|----------------------------|
D |----------------------------|
A |----------------------------|
E |----------------------------|
B |-5/7-7-7-7-7\3~~-3~-3/5-5-0-|

INTRO 2:
b |----------------------------|
F#|----------------------------|
D |----------------------------|
A |-3/4-4-4-4-4----------------|
E |-1/2-2-2-2-2-5---5--5/7-7-2-|
B |-------------3---3--3/5-5-0-|
[ Tab from: http://www.guitartabs.cc/tabs/s/superheist/1_4_u_tab_ver_2.html ]
VERSE:
b |-------------------------|
F#|-------------------------|
D |-------------------------|
A |-------------------------|
E |-------------------------|
B |-2-2-2-2-2--0-1-0-0-1--1-|
pm  . . . . .  . . . . .  .

PRE-CHORUS:
b |-------------------------|
F#|-------------------------|
D |-------------------------|
A |-------------------------|
E |-4-4-4-4-4--2-3-2-2-3--3-|
B |-2-2-2-2-2--0-1-0-0-1--1-|

CHORUS:
b |-----------------------------|
F#|-----------------------------|
D |-4---4-4--4-4--7---7-7--7-7--|
A |-4---4-4--4-4--7---7-7--7-7--|
E |-2---2-2--2-2--5---5-5--5-5--|
B |-----------------------------|

BRIDGE:
b |-------------------------------------------|
F#|-------------------------------------------|
D |-14--11--9--11--7---14--11--9--11--16---14-|
A |-------------------------------------------|
E |-12--9---7--9---5---12--9---7--9---14---12-|
B |-------------------------------------------|
This is just the changes, the rest just do by ear.

yeah!
Comments