Supergrass - We Still Need More Than Anyone Can Give Chords & Tabs

 

We Still Need More Than Anyone Can Give Chords & Tabs

Supergrass Chords & Tabs

Version: 1 Type: Bass Tab 0 ratings
1 star 2 stars 3 stars 4 stars 5 stars
comments

We Still Need More Than Anyone Can Give Bass Tab

We Still Need More (Than Anyone Can Give) by Supergrass

Tabbed by Rob Clay (robclay@hotmail.com)


Verse:

G-----------------------------------|
D-5-----5--------------5------------|
A---5-7---5-7-5--5-7-5---5-7-5------|
E-----------------------------------|

G-----------------------------------|
D-----------------------------------|
A-3-----3--------------3------------|
E---3-5---3-5-3--3-5-3---3-5-3------|

G-----------------------------------|
D-2---0-2---0------0---2---0--------|
A---2-----2---2--2---2---2---2------|
E-----------------------------------|

G-----------------------------------|
D-3-----3-------5-3-5-3-------------|
A---3-5---3-5-3---------5-3-5-3-----|
E-----------------------------------|

[ Tab from: http://www.guitartabs.cc/tabs/s/supergrass/we_still_need_more_than_anyone_can_give_btab.html ]
Chorus:

G-----------------------------------------|
D-5-------------5-------------------  X 2-|
A--------------------0-0-0-0-0-0-0-0------|
E------0-3----3---------------------------|


Bridge:

G---7~--5h7p5h7p5h7-----------------|
D-----------------------------------|  X 3
A-5---------------------------------|
E-----------------------------------|

G-----------------------------------|
D-3-3-------------------------------|
A-----3-3-5-5-3-3-------------------|
E-----------------------------------|

before going back to verse:
G-----------------------------------|
D-----------------------------------|
A-----7-7-----7-7-------------------|
E-5-5-----5-5-----------------------|


Any comments or improvements - robclay@hotmail.com
Comments