Supergrass - Time (riff) Chords & Tabs

 

Time (riff) Chords & Tabs

Supergrass Chords & Tabs

Version: 1 Type: Tab 0 ratings
1 star 2 stars 3 stars 4 stars 5 stars
comments

Time (riff) Tab

   
##################################################################################
# This file is the author's own work and represents their interpretation of the  #
# song. You may only use this file for private study, scholarship, or research.  #
##################################################################################


From:  Andrew Mulhern  
Subject:  Time by SUPERgrass.

This is my favorite song from the absolutly superb " I SOULD COCO " album.


                                                  Time (riff)

                                                    by
                                                SUPERGRASS



Riff A
[ Tab from: http://www.guitartabs.cc/tabs/s/supergrass/time_riff_tab.html ]
E|------------------------------------|
B|----------------------0-------------|    
G|----------------------4-------------|       
D|----------2----------2--------------|
A|---2--4----x-x-x-----x-x-x-x---|    ( The mutes are plam ones, play them very lightly )
E|--------------------------------------|

Riff B

E|--------------------------------------------|-----------------------------|
B|--------------------0----------------------|-----------------------------|
G|--------------------4--2--5--2--4--2---|-----------------------------|       
D|---------2----------2--2--2--2--2--2---|----------6-----------------|
A|--2--4----x-x-x-------------------------|---4--4--6--4---4-5-6---|
E|--------------------------------------------|---2--2--4--2---2-3-4---|



Happy Playing!!!!!!!

Tabbed by: Andrew Mulhern 

Comments