Supergrass - Sofa Of My Lethargy Chords & Tabs

 

Sofa Of My Lethargy Chords & Tabs

Supergrass Chords & Tabs

Version: 2 Type: Bass Tab 0 ratings
1 star 2 stars 3 stars 4 stars 5 stars
comments

Sofa Of My Lethargy Bass Tab

   
Song: Sofa of my lethargy
Artist: Supergrass
Album I should coco
Tabbed by Saul

Intro:
G|----------------------|
D|----------------------|
A|-//-5-5-0h5-0-5-5-0h5-| X2
E|----------------------|
Verse:
G|--------------------|---------------7-9/11-9-7-|
D|*-------------------|------------7h9-----------|
A|*-5-5-0h5-0-5-5-0h5-|-0-7-7-0h7-0--------------|
E|--------------------|--------------------------|

G|-7---------------|------------|
D|---9-7-----------|-----------*|
A|-------9-7-----7-|-5-5-0h5-5-*|  X2
E|-----------7h9---|------------|

G|---------------------------|----------------------------|
D|-------3-6-3---------------|-------------10-10-13-13-15-|
A|-0-4-6-------4/-9-9-----7-9|-10-10-12-12----------------|
E|--------------------7-9----|----------------------------|

G|---------------|-------------------|--------------7-9/11-9-7-|
D|*--------------|-------------------|-----------7h9-----------|
A|*14//5-5-0h5-5-|-5-5-0h5-0-5-5-0h5-|-07-7-0h7-0--------------|
E|---------------|-------------------|-------------------------|

G|-7---------------|--------------|
D|---9-7-----------|-------------*|
A|-------9-7-----7-|-5-5-0h5-5-5-*| X2
E|-----------7h9---|--------------|
[ Tab from: http://www.guitartabs.cc/tabs/s/supergrass/sofa_of_my_lethargy_btab_ver_2.html ]
G|-----------------------|----------------------------------|
D|-------3-6-3-----------|-------------10-10-13-13-15-15-15-|
A|-0-4-6-------4/-9-9-99-|-10-10-12-12----------------------|
E|-----------------------|----------------------------------|
Mid section:
G|--------------------|-------------|-------------|
D|--------------------|-------------|-----0h777---|
A|-15//---------------|5-5-0h5-5-56-|-7-7-------7-|
E|-------5-5-0h3-33-5-|-------------|-------------|

G|-----------|-------------------4-2-----|--------------------|
D|-----------|---------------2-4----42---|-----0-777----------|
A|-5-5-0h33-4|-5--5-3-3-3-2h4----------4-|-7-7------7-5-5-0h5-|
E|-----------|---------------------------|--------------------|

G|---------------------|------------------------------|
D|-----3-6-3-----------|-------------9/10-10-12-12-15-|
A|-4-6-------4/-9-9-909|-10-10-12-12------------------|
E|---------------------|------------------------------|

G|----------------|
D|----------------|
A|-14//-5-5-0h5-5-|
E|----------------|

Verse once

Mid section

Outro:
The outro consists of these two riffs , all working round D.
Riff #1
G|-----------|------7-9\11-9-----|-----------|
D|-----------|---7h9---------7-/-|-----------|
A|-5-5-0h5-5-|-0-----------------|-5-5-0h5-5-|
E|-----------|-------------------|-----------|
Riff#2
G|-----------|----------5-77-5---|-----------|
D|-----------|---0-\\\7--------7-|-----------|
A|-5-5-0h5-5-|-0-----------------|-5-5-0h5-5-|
E|-----------|-------------------|-----------|

I end up playing this different every time, so use this as a guide.
Any corrections are welcome.
Comments