Supergrass - She's So Loose Chords & Tabs

 

She's So Loose Chords & Tabs

Supergrass Chords & Tabs

Version: 1 Type: Tab 0 ratings
1 star 2 stars 3 stars 4 stars 5 stars
comments

She's So Loose Tab

   
##################################################################################
# This file is the author's own work and represents their interpretation of the  #
# song. You may only use this file for private study, scholarship, or research.  #
##################################################################################

Supergrass - She's So Loose


- Tabbed by Mulhern 


INTRO:

[Fmaj7b5]

VERSE 1:

[Fmaj7b5]Take my love [Esus4]away [E]
[Fmaj7b5]Its never gonna work for [A]you

 CHORUS

VERSE 2:

[Fmaj7b5[Take these wings [Esus4]away [E]
[Fmaj7b5]There never gonna work for [A]me

CHORUS: again But  DON'T play this, this time
[A]Shes [F]So [Cmaj7]Loose

Instead play this:

   A         F         G         F         G         G#
E|-5--5--5---1--1--1---3--3--3---1--1--1---3--3--3---4--4--4---5---|
B|-5--5--5---1--1--1---3--3--3---1--1--1---3--3--3---4--4--4---5---|
G|-6--6--6---2--2--2---4--4--4---2--2--2---4--4--4---5--5--5---6---|
D|-7--6--6---3--3--3---5--5--5---3--3--3---5--5--5---6--6--6---7---|
A|-7--7--7---3--3--3---5--5--5---3--3--3---5--5--5---6--6--6---7---|
E|-5--5--5---1--1--1---3--3--3---1--1--1---3--3--3---4--4--4---5---|

E|--------------0--|
B|--------------0--|
G|--7-5----5-7--1--|
D|--7-5----5-7--2--|
A|------7-------2--|
E|--------------0--|

The solo isn't 100% correct but its as close as I can get it
[ Tab from: http://www.guitartabs.cc/tabs/s/supergrass/shes_so_loose_tab.html ]
E|-------------------------------------------------------------|
B|-------------------------------------------------------------|
G|-0-----5~~--0-----5~~--0-----5~~--0-----5~~---5\1/5\1/5\4~~--|
D|-0-5/7------0-5/7------0-5/7------0-5/7----------------------|
A|-------------------------------------------------------------|
E|-------------------------------------------------------------|

E|---------------------------------------------------------------|
B|---------------------------------------------------------------|
G|-4h5p4-2-4---4---4---4---4-5-4h5p4--2---4-4-5-4h5p4---2-5-5~~--|
D|---------------2---2---2---------------------------------------|
A|---------------0---0---0---------------------------------------|
E|---------------------------------------------------------------|

CHORUS: again

Note:
Fmaj7b5  - 133200
Esus4    - 022200
B7add11 -  x21200
Cmaj7  -  x32000

Correction/Comments Welcome :)

Tabbed by:

--
   __________________   _____________________________________________
  /                  \ /                                             \
 |   Andrew Mulhern   |         I am Today, You are Tomorrow          |
 |   **************   |  I Light the Way, While You Drown the Sorrow  |
  \__________________/ \_____________________________________________/
                                  \ mulhern@zetnet.co.uk /
       /~~\_/~>         ,,,        **********************
      { [====|||||||||||:::}
       \__/~\_>         '''
    
Comments