Supergrass - Moving Chords & Tabs

 

Moving Chords & Tabs

Supergrass Chords & Tabs

Version: 1 Type: Tab 0 ratings
1 star 2 stars 3 stars 4 stars 5 stars
comments

Moving Tab

   
##################################################################################
# This file is the author's own work and represents their interpretation of the  #
# song. You may only use this file for private study, scholarship, or research.  #
##################################################################################

Supergrass - Moving


Originally tabbed by Lane Brown
Updated/Additions by:
Alun Morgan - ottomann@hotmail.com
Graham Connell - g.connell@virgin.net
Arjan HuisintVeld - frankgovers@hotmail.com
Steve P
Tom Borroughs
Graham Connell



Chords used:
  D13      Emin9    C9   Am  Bsus2 B7     Bm   A   Em
e--7----------7-----3----0----2----2--|--7----5----7-
b--7----------7-----3----1----2----4--|--7----5----8-
g--5----------9-----0----2----4----2--|--7----6----9-
d--5----------9-----0----2----4----4--|--9----7----9-
a--5----------7-----3----0----2----2--|--9----7----7-
e--x----------7---3-0----0----2----2--|--7----5----7-


In the chorus there's a there's a second guitar that plays this little
riff:  
     Bm     A      Em
E -|-7------5--------7-7------7-7-
B -|-7------5--------8-7------8-7-
G -|-7------6--------7-7------7-7-
D -|-9------7----7h9-9-7--7h9-9-7-
A -|------------------------------
E -|------------------------------


[Solo]

[ Tab from: http://www.guitartabs.cc/tabs/s/supergrass/moving_tab.html ]
       ~~~~~~~~
------------------------------------------------------------------
------------------------------------------------------------------
--7/9-7-----7/9-7----9\7-7----------------------------------------
--------7-9----------------9br10-9-9/16--------16-17-19/16--------
-----------------------------------------12-----------------------
-------------------------------------------14---------------------
    ~~~        ~~~~
------------------------------------------------------------------
--------------------------------15/17-15--------------------------
-----------------------------------------14/16-14--14-16-16b17b16-
--16b17b16---14--------------14-----------------------------------
----------------17-14---------------------------------------------
----------------------17-15---------------------------------------

------------------------------------------------------------------
---14-12-11----9/8----9-11----------------------------------------
------------------------------------------------------------------
------------------------------------------------------------------
------------------------------------------------------------------
------------------------------------------------------------------

-Repeat the above and twiddle it a bit :o)

[Chorus]

--7-7-x--5-5-x----------------------------------------------------
--7-7-x--5-5-x------8-7--7-----8-7--------------------------------
--7-7-x--6-6-x--7---7-7--7-7---7-7--------------------------------
--9-9-x--7-7-x--7h9-9-9--9-7h9-9-9--------------------------------
--9-9-x--7-7-x--7----------7--------------------------------------
--7-7-x--5-5-x----------------------------------------------------

-repeat


***************************************************************************************************************

**************************************************************************************************************


Moving - Supergrass  
-------------------


Tabbed using www.GuitarAndBass.co.uk Transcription Tools v1.12
--------------------------------------------------------------


Chords
     C  Emadd9 C    Am7     B7sus2   B7          Bm   A    Em           
E||-------2----0----0----|--2--------2--------|--2----0----0--------|
B||--5----0----1----1----|--2--------4--------|--3----2----0--------|
G||--5----0----0----0----|--2--------2--------|--4----2----0--------|
D||--5----2----2----2----|--4--------4--------|--4----2----2--------|
A||-------2----3----0----|--2--------2--------|--2----0----2--------|
E||-------0--------------|--------------------|------------0--------|


Tabbed using www.GuitarAndBass.co.uk Transcription Tools v1.12
Comments