Supergrass - Mary Chords & Tabs

 

Mary Chords & Tabs

Supergrass Chords & Tabs

Version: 1 Type: Tab 0 ratings
1 star 2 stars 3 stars 4 stars 5 stars
comments

Mary Tab

   
##################################################################################
# This file is the author's own work and represents their interpretation of the  #
# song. You may only use this file for private study, scholarship, or research.  #
##################################################################################

Supergrass - Mary

- Main bit Tabbed by Scarface
- Keyboard Riff tabbed by Bill Robinson

This song is really cool and i wanted to do it in a band, but when i went to look
for the tab it was just the chords which is crap. So i decided to do it myself. 
It is a fairly easy song to play as long as you read the tips in the capitals. 


INTRO - CONTROLLED FEEDBACK WITH A WHAMMY BAR. TURN UP THE GAIN AND STRUM THE FIRST 
CHORD AND THEN SLIDE THE REST IN THE INTRO.

Eb, C, Ab. 

VERSE

---- CHORDS G#, F, Cm 

BREAK ON THE "A" STRING WITH AN E-BOW

A  - 11 8      5(bend x3) 5      3     6(bend x3)       8      15  



BREAK ON THE "A" STRING WITH AN E-BOW

A  - 11 8      5(bend x3) 5      3     6(bend x3)       8      15      



Ahhhhh... ay ya ya
Ahhhhh... ay ya ya

Ahhhhh... ay ya ya
Ahhhhh... ay ya ya
Ahhhhh... ay ya ya
ay ya ya


QUIET BIT WITH E-BOW - 11    12    10     8     6     5(bendx3)      6      8      15 (PLAY IT TWICE)

 Ahhhhh... ay ya ya
Ahhhhh... ay ya ya
[ Tab from: http://www.guitartabs.cc/tabs/s/supergrass/mary_tab.html ]
Ahhhhh... ay ya ya ay ya ay
Ahhhhh... ay ya ya
Ahhhhh... ay ya ya
ay ya ya
  

------------------------------------------
This is just the keyboard riff arranged for guitar on
"Mary" by Supergrass.

  G#            F                  Cm
e-------------------------------------------------
B-------------------------------------------------
G-------------------------------------------------
D----------------1---1--3--1--0-------------3---3-
A---6-----6--------3------------3--6--3--6----6---
E-4---4-4---4--1----------------------------------
  Cm
e-------------6----------------
B----4--6--6^---6^--4-----4----
G-\5-------------------5-------
D------------------------------
A------------------------------
E------------------------------
  G#            F                Cm
e-------------------------------------------------
B-------------------------------------------------
G-------------------------------------------------
D----------------1---1--3--1--0-------------3--5--
A---6-----6--------3------------3--6--3--6--------
E-4---4-4---4--1----------------------------------
 Cm
e-6-6-6---------------------
B-------6^-6-4--6-----------
G---------------------------
D---------------------------
A---------------------------
E---------------------------

    


 CHORDS G#, F, Cm  (THIS TIME PLAY THEM BARRED AND HEAVIER)
Ahhhhh... ay ya ya
Ahhhhh... ay ya ya



---- CHORDS G#, F, Cm  
Comments