Supergrass - Hollow Little Reign Chords & Tabs

 

Hollow Little Reign Chords & Tabs

Supergrass Chords & Tabs

Version: 1 Type: Tab 0 ratings
1 star 2 stars 3 stars 4 stars 5 stars
comments

Hollow Little Reign Tab

   
##################################################################################
# This file is the author's own work and represents their interpretation of the  #
# song. You may only use this file for private study, scholarship, or research.  #
##################################################################################

Supergrass - Hollow Little Reign


- Tabbed by Bill Robinson


intro:Gm  Am/F  Gm  Am/F  Gm  Am/F  Gm  Am/F
      Gm  Am/F  Gm  Am/F  Gm  Am/F  Eb  Bbmaj7  D
(w/wah-wah)

Verse 1 and 2: Gm Am/F Gm Eb Bbmaj7 D  

chorus:C  Fm  Fm/Bb Fm/B F/C   E  D
       Someday when I    care.....

repeat chorus

Horn solo arranged for guitar:
e------------------------------------------------------
B-8--10----8--10------8--10----8--10----9-------9------
G-------9----------7---------9-------5----9-7-9---9-7-9
D------------------------------------------------------
A------------------------------------------------------
E------------------------------------------------------

verse 3

repeat chorus
[ Tab from: http://www.guitartabs.cc/tabs/s/supergrass/hollow_little_reign_tab.html ]
solo(with wah-wah)
e------------------------------------------------------
B-8--11--10--8--6--8-----------------------------------
G---------------------7--9--10--9--7--5--7-7-(5)-(7)-7-
D------------------------------------------------------
A------------------------------------------------------
E------------------------------------------------------

e------------------------------------------------------
B--------------11--10--8--6--8-------------------------
G-5--3--2--0--------------------7--9--10--9--7--5--7---
D------------------------------------------------------
A------------------------------------------------------
E------------------------------------------------------

e------------------------------------------------------
B-----------------13--11-----11-----13--11-----11------
G-7-(5)-(7)-7-------------12-----12---------12----12-12
D------------------------------------------------------
A------------------------------------------------------
E------------------------------------------------------

e------------------------------------------------------
B-11--10--8--6--8--------------------------------------
G------------------7--9--10--9--7--5--7--7-(5)-(7)-7---
D------------------------------------------------------
A------------------------------------------------------
E------------------------------------------------------

e------------
B------------
G-5--3--2----
D------------
A------------
E------------

Gm..

.

Comments