Supergrass - Faraway Chords & Tabs

 

Faraway Chords & Tabs

Supergrass Chords & Tabs

Version: 1 Type: Tab 0 ratings
1 star 2 stars 3 stars 4 stars 5 stars
comments

Faraway Tab

   
##################################################################################
# This file is the author's own work and represents their interpretation of the  #
# song. You may only use this file for private study, scholarship, or research.  #
##################################################################################

Supergrass
Faraway


Tabbed by - Sam "Garcia rockin the World" Marsh

Arguably the best song on the album, and one of the easiest to play!
The intro is played on keyboards, and I haven't transcribed that (it's
not too hard to figure out - very clear).  The guitar for the verse is
below, as are the chords for the chorus. Wow, what a song!

Cx32010Fm133111
Gm7353333Fm7131111
G#466544C#x4666x
G#7464544Bx2444x

F133211Ebx6888x

[Tip for chorus: When playing the C and F chords, intersperse 4ths
at appropriate points, ie 
Cadd4x33010
Fsus4133311   follow?]

 
VERSE:


   C                   Gm7                 G#                G#7
[ Tab from: http://www.guitartabs.cc/tabs/s/supergrass/faraway_tab.html ]
e -----------------------------------------------------------2-----2-----2---
B ---5-----6p5-----5-----3-----4p3-----3-----1-----1-----------1-----1-----1-
G -----5-------5-----------3-------3-----------1-----1---1-------1-----1-----
D -5-----5-------5-----3-----3-------3-----1-----1-----1---------------------
A ---------------------------------------------------------------------------
E ---------------------------------------------------------------------------

    Yesterday   seems  faraway     and     I can   see it    true


   Fm                  Fm7                 C#                B

e -1------1------1--------------1--------------------------------------------
B ---1------1------1-------1------1---1------------6-----------4-----4-----4-
G -----1------1----------1---1------1----------6-----6---6-------4-----4-----
D ---------------------1---------------------6---6-----6-----------4-----4---
A -----------------------------------------4-----------------2---------------
E ---------------------------------------------------------------------------

  I don't believe you're leaving me with   nothing  on the   tube

OK? 

samuelmarsh@hotmail.com
http://doghousepages.lycos.com/music/marsh
Comments