Supergrass - Born Again Chords & Tabs

 

Born Again Chords & Tabs

Supergrass Chords & Tabs

Version: 2 Type: Tab 0 ratings
1 star 2 stars 3 stars 4 stars 5 stars
comments

Born Again Tab

   
Supergrass
Born Again


Tabbed by - Sam 'No friends=spare time' Marsh

Another gem for you.  This time, probably not 100% accurate, because
the recording has a lot of echo and nice tinkly effects but it sounds 
pretty good to me.  It may look daunting, but the verse is based around
two chord shapes:
			xx0767   and	xxx067

Play around with the picking and the fret no. on the e-string and you're laughing.

The chorus can be strummed effectively as shown.  Not too hard.  Nicely written.

A	x0222x
C	x32010
D	xx0232
G/D	xx0033
C/D	xx0010


VERSE:


e -------8--------8--7------0---7--7-------7--------
B -------6--6-----6--6------6---6--6--6-------6-----
G ----7-------7---------7-----7----------7-------7--
D -0------------------------------------------------
A --------------------------------------------------
E --------------------------------------------------

   You      keep      me         warm


e -------8--------8--7------0---7--7-------7--------
B -------6--6-----6--6------6---6--6--6-------6-----
G ----7-------7---------7-----7----------7-------7--
D -0------------------------------------------------
A --------------------------------------------------
E --------------------------------------------------

   Some      other       fawn


e -------8--------8--7------0---7--7-------7--------
B ----6--6--6-----6--6------6---6--6--6-------6-----
G -0----------0---------0-----0----------0-------0--
D --------------------------------------------------
A --------------------------------------------------
E --------------------------------------------------

    You're over the moon,   she said
[ Tab from: http://www.guitartabs.cc/tabs/s/supergrass/born_again_tab_ver_2.html ]
e -------8--------8--7------0---7--7-------7--------
B ----6--6--6-----6--6------6---6--6--6-------6-----
G -0----------0---------0-----0----------0-------0--
D --------------------------------------------------
A --------------------------------------------------
E --------------------------------------------------



CHORUS:

   A                   C                   D         G/D  C/D    D

e ------------------------------------------------------------------------------
B -----2---2--0---------------1---0--------------------------------------3------
G -----2---2--2--2--0------0--0---0--2--0-------2----4----4h5--4-0-------0--0---
D ---2---2-------2--0----2------2----------0----0----0----0----0-0--2/4-------4-
A -0-------------------3--------------------------------------------------------
E ------------------------------------------------------------------------------

   Whatever    you    want        it's all right


   A                   C                   D         G/D  C/D    D

e ------------------------------------------------------------------------------
B -----2---2--0---------------1---0--------------------------------------3------
G -----2---2--2--2--0------0--0---0--2--0-------2----4----4h5--4-0-------0--0---
D ---2---2-------2--0----2------2----------0----0----0----0----0-0--2/4-------4-
A -0-------------------3--------------------------------------------------------
E ------------------------------------------------------------------------------

 There's still a place in my heart, it's all right    

etc...


LOVELY!

samuelmarsh@hotmail.com
http://doghousepages.lycos.com/music/marsh

Comments