Supergrass - Alright Chords & Tabs

 

Alright Chords & Tabs

Supergrass Chords & Tabs

Version: 1 Type: Bass Tab 0 ratings
1 star 2 stars 3 stars 4 stars 5 stars
comments

Alright Bass Tab

SUPERGRASS-BASS
Keyboard tab by Simon Kinch
email:retrobassplayer@hotmail.com
Email me any suggestions, especially the chords for the solo.



The Song:
Intro(see tab below) 4 bars
Verse(see tab below) 8 bars [we are young, we run free, with our teeth, nice and clean, see our friends, see the sights, feel alright]
Verse(see tab below) 8 bars [we wake up, we go out, smoke a fag, put it out, see our friends, see the sights, feel alright]
Bridge(see tab below) 8 bars [And we like you, I cant be sure, of the scene, as she turns, we are strange, in our worlds]
Verse(see tab below) 8 bars [But we are young, we get by, dont go back, take your time, sleep around, if we like, but we're alright]
Verse(see tab below) 8 bars [Got some cash, got some wheels, took it out, cross the fields, lost control, hit a wall, we're alright]
Bridge(see tab below) 8 bars [And we like you, I cant be sure, of the 	scene, as she turns, we are strange, in our worlds]
Verse(see tab below) 8 bars [we are young, we run free, with our teeth, nice and clean, see our friends, see the sights, feel alright]
Solo part 1, 10 bars(Although I roughly know the solo melody, Ive yet to work out the underlying chords)
Solo part 2(same as verse, use verse tab twice) 16 bars	[hawian sounding guitar effect]
Bridge(see tab below) 8 bars [And we like you, I cant be sure, of the 	scene, as she turns, we are strange, in our worlds]
Verse(see tab below) 8 bars [we are young, we run free, with our teeth, nice and clean, see our friends, see the sights, feel alright]
Outro(repeat and fade out verse tab)



Reading this tab:

Each bar is defined by lines of | at the end. Each bar is divided into quavers along the top, so you can get the time values correct.
			

Intro(4 bars):
Tacet(Dont play)

[ Tab from: http://www.guitartabs.cc/tabs/s/supergrass/alright_btab.html ]
Verse Riff(8 bars):
Beat:|1--+--2--+--3--+--4--+--|1--+--2--+--3--+--4--+--|
G   :|------------------------|------------------------|
D   :|---------7-----7--------|---------7-----7--------|
A   :|5-----------------------|5-----------------------|
E   :|------------------5-----|------------------5-----|

Beat:|1--+--2--+--3--+--4--+--|1--+--2--+--3--+--4--+--|
G   :|------------------------|------------------------|
D   :|---------7-----7--------|---------7-----7--------|
A   :|5-----------------------|5-----------------------|
E   :|------------------5-----|------------------5-----|

Beat:|1--+--2--+--3--+--4--+--|1--+--2--+--3--+--4--+--|
G   :|------------------------|------------------------|
D   :|---------7-----7--------|---------7-----7--------|
A   :|7-----------------------|7-----------------------|
E   :|------------------5-----|------------------5-----|

Beat:|1--+--2--+--3--+--4--+--|1--+--2--+--3--+--4--+--|
G   :|------------------------|------------------------|
D   :|---------7-----7--------|---------7-----7--------|
A   :|5-----------------------|5-----------------------|
E   :|------------------5-----|------------------5-----|


Bridge Riff(8 bars):
Beat:|1--+--2--+--3--+--4--+--|1--+--2--+--3--+--4--+--|
G   :|------------------------|------------------------|
D   :|------------------------|4-----------------------|
A   :|4--4--4--4--4--4--4--4--|---4-----2-----0--------|
E   :|------------------------|------------------------|

Beat:|1--+--2--+--3--+--4--+--|1--+--2--+--3--+--4--+--|
G   :|------------------------|------------------------|
D   :|------------------------|------------------------|
A   :|3--3--3--3--3--3--3--3--|---0-----2-----3--------|
E   :|------------------------|1-----------------------|

Beat:|1--+--2--+--3--+--4--+--|1--+--2--+--3--+--4--+--|
G   :|------------------------|------------------------|
D   :|------------------------|------------------------|
A   :|5--5--5--5--5--5--5--5--|5--5--3--3--2--2--0--0--|
E   :|------------------------|------------------------|

Beat:|1--+--2--+--3--+--4--+--|1--+--2--+--3--+--4--+--|
G   :|------------------------|------------------------|
D   :|------------------------|------------------------|
A   :|0--0--0--0--0--0--0--0--|0--0--0--0--0--0--0--0--|
E   :|------------------------|------------------------|





Comments