Supergirl - Reamonn Chords & Tabs

 

Reamonn Chords & Tabs

Supergirl Chords & Tabs

Version: 1 Type: Tab 0 ratings
1 star 2 stars 3 stars 4 stars 5 stars
comments

Reamonn Tab

   
supergirl2.tabFrom: Marko Borosic
E-mail:mborosic@gmx.de
Song: Supergirl
Artist: Reamonn

This is my (corrected) version of the song. Thanks to all those who mailed 
me the right chord. Got the lyricsfrom the internet, dont know if they are correct.Comments,
corrections, questions? feel free to e-mail me...

chords used:
F#m (244222)
E   (022100)
Bm  (224432)
D   (000232)
A   (577655)
C#m (446654)


Intro:
----------------------5-4-5-5h7--5-4-2-4-2---2-------------------
---0-0-0-0h2--5-3-2------------------------3---------------------
-----------------------------------------------------------------
-----------------------------------------------------------------
-----------------------------------------------------------------
-----------------------------------------------------------------

For the chorus play:
	A	E	   F#m		 D	get it?
--------5-------0-2-0-------2-4-2--------2-----------------------
--------5-------0-0-0-------2-2-2--------3-----------------------
--------6-------1-1-1-------2-2-2--------2-----------------------
--------7-------2-2-2-------4-4-4--------0-----------------------
--------7-------2-2-2-------4-4-4--------0-----------------------
--------5-------0-0-0-------2-2-2--------0-----------------------
[ Tab from: http://www.guitartabs.cc/tabs/s/supergirl/reamonn_tab.html ]
		F#m				C#m
You can tell by the way She walks that she’s my girl 
		Bm				D
You can tell by the way She talks she rules the world 
		F#m				C#m
You can see in her eyes That no one is her Chick 
	Bm		D	
She’s my girl my Supergirl 

		A
And then she’d say It’s OK 
	E
I got lost On the way 
		F#m			D
But I’m a Supergirl And Supergirls don’t cry 
	A		
And she’d say It’s alright 
	E
I got home Late last night 
		F#m			D
But I’m a Supergirl And Supergirls just fly 

And then she’d say That nothing can go wrong 
When you’re in love What can go wrong 
And then she’d laugh The night time into the day 
Pushing her fears Further along 

And then she’d say It’s OK 
I got lost On the way 
But I’m a Supergirl And Supergirls don’t cry 
And she’d say It’s alright 
I got home Late last night 
But I’m a Supergirl And Supergirls just fly 

Then she’d shout Down the line 
Tell me she’s got No more time 
Cause she’s a Supergirl And Supergirls don’t cry 
Then she’d scream In my face 
Tell me to leave leave this place 
Cause she’s a Supergirl And Supergirls just fly 

She’s a Supergirl A Supergirl 
She’s sewing seeds She’s burning trees 
She’s sewing seeds She’s burning trees 
She’s a Supergirl A Supergirl 
A Supergirl My Supergirl



Comments