Superdrag - Whiteys Theme Chords & Tabs

 

Whiteys Theme Chords & Tabs

Superdrag Chords & Tabs

Version: 1 Type: Tab 0 ratings
1 star 2 stars 3 stars 4 stars 5 stars
comments

Whiteys Theme Tab

   
Whitey's Theme (Stereo 360 Sound)
by J. Davis
arr. by Superdrag

intro-
guitar 1- play below part 1X          this 3X       and this 1X
e|----------------------------------|-------------|-------------|
B|----------------------------------|-------------|-------------|
G|----------------------------------|-------------|-------------|
D|----------------------------------|-------------|-------------|
A|----------------------------------|-------------|-------------|
E|-5-5-5-5-5-5-5-5-5-5-5-5-5-5-5-5--|-10-10-10-10-|-10-9-10-12--|

guitar 2- enters at some point... listen for exact rythym
e|----------------------------------|-----------------------------------|
B|----------------------------------|-----------------------------------|
G|---6-----6---------6----6-6-------|----7-----7--------7---7-9-7-6-7---|
D|----------------------------------|-----------------------------------|
A|-7-----7----7----7----7-----7-----|-9------9-----9--9---9-------------|
E|----------------------------------|-----------------------------------|
[ Tab from: http://www.guitartabs.cc/tabs/s/superdrag/whiteys_theme_tab.html ]
bass- each bar 2X
G|----------------------------------|----------------------------------|
D|----------------------------------|----------------------------------|
A|-12-12-12-12-12-12-12-12----------|-5-5-5-5-5-5-5-5------------------|
E|----------------------------------|----------------------------------|

get all that?

                       A             D
verse-	there's not an answer
	                         A          D
	expecting nothing impromptu
                  A             D
	i was the cancer
                                        A     D
	but something cures me when you do me babe

               Bm
	and if you don't know by now
                        D
	i'm never gonna show you how
               Bm
	and if you don't konw by now
                        D
	i'm never gonna show you how or
        E
	let you out of me

	outro -
	A                 G
        / / / / / / / / / / / / / / / / 

if you're lookin for that little
"ring around the rosie" melody that
john plays at the end of the regretfully yours
version, i guess you had better go check out the
regretfully yous version, hadn't you?

there are a lot of little improvised
fills and whatnot. i'll let you at it.
try pedaling a little on high a (hi e string, fret 5)
also, try arpeggiating the end g and a 
love, alan

	


Comments