Superdrag - Take Your Spectre Away Chords & Tabs

 

Take Your Spectre Away Chords & Tabs

Superdrag Chords & Tabs

Version: 1 Type: Tab 0 ratings
1 star 2 stars 3 stars 4 stars 5 stars
comments

Take Your Spectre Away Tab

   
#----------------------------------PLEASE NOTE--------------------------------#
#This file is the author's own work and represents their interpretation of the#
#song. You may only use this file for private study, scholarship, or research.#
#-----------------------------------------------------------------------------#

Author/Artist: Superdrag
Title: Take Your Spectre Away
Album: ???
Transcribed by: Alan Hromas
Email: arh1983@hotmail.com

Intro:    E
	e|-----------------------|
	B|-----------------------|
	G|-----2-----2---4-------|
	D|-----2-----2---4/6-----|
	A|-2/4---2/4-----7-------|
	E|---------------0-------|

	  C#m7              E
	e|------------------------------------|
	B|---------5-----------------5--------| the * indicates
	G|-----4-------4---------4-------4----| a 16th note rest
	D|-------6---6-------------6---6------|
	A|---4-----------4-----7-----------7--|
	E|-*----------------*-----------------|
[ Tab from: http://www.guitartabs.cc/tabs/s/superdrag/take_your_spectre_away_tab.html ]
	For the arpeggiated part, the chords are like this:
	
	E A D G B E
C#m7    x 4 6 4 5 x
Emaj9   x 7 6 4 7 x

Verse:  C#m7    E
	/ / / /	look me straight in the eye
	
	C#m7	E
	/ / / /	crosses hanging too high 
	
	C#m7    E
	/ / / /	celebrating me dying.
	
	         B         Bsus4
	too much pressure 
	
	      B            Bsus4
	you disaster
	
	         B         Bsus4
	too much pressure


Start with the intro again...

Verse:
	take your spectre away 
	overcasting today 
	you have nothing to say 

For the tag ending,
the organ comes in
with the B/Bsus4 also...

	too much pressure 
	you disaster 
	too much pressure 
	you disaster 
	too much pressure 
	you disaster
	too much pressure. 

Organ arr. for guitar...
	  B             Bsus4
	e|---7---7---7---7-------|
	B|---7---7---7---7-------|
	G|---8---8---8---9-------|
	D|-----------------------|
	A|-----------------------|
	E|-7---7---7---7---------|




Comments