Superdrag - Sucked Out Chords & Tabs

 

Sucked Out Chords & Tabs

Superdrag Chords & Tabs

Version: 4 Type: Tab 0 ratings
1 star 2 stars 3 stars 4 stars 5 stars
comments

Sucked Out Tab

   
Sucked Out by Superdrag
transcribed by Mike Richards

PLEASE NOTE:  The guitar and bass parts do not nessecarily
              line up.  The bass part is also not exact, but
              it should be semi-helpful.

Verse: Play the first line reasonably clean, then kick in
       the distortion for the verse riff.

--Intro riff--

 E        B         C#m     G#        A       E         B
--------------------------------------------------------------------|
------9-----------------5---------------------------------------7---|
------9-----------------6-----------------7-------------------8-----|
----9---------9-------6---------6---------7-------2---------9-------|
--7---------9---9---4---------6---6-----7-------2---2-----9---------|
----------7-----------------4---------5-------0---------7-----------|

--Verse riff--  (I'm not sure if I have the positions for the E and
                 the B correct.  There's too much distortion for me
                 to tell.)
  E        B        C#m      G#       A        E        B
|-7-7-7-7--7-7-7-7--4-4-4-4--4-4-4-4--5-5-5-5--7-7-7-7--7-7-7-7-7-7-|
|-9-9-9-9--7-7-7-7--5-5-5-5--4-4-4-4--5-5-5-5--9-9-9-9--7-7-7-7-7-7-|
|-9-9-9-9--8-8-8-8--6-6-6-6--5-5-5-5--6-6-6-6--9-9-9-9--8-8-8-8-8-8-|
|-9-9-9-9--9-9-9-9--6-6-6-6--6-6-6-6--7-7-7-7--9-9-9-9--9-9-9-9-9-9-|
|-7-7-7-7--9-9-9-9--4-4-4-4--6-6-6-6--7-7-7-7--7-7-7-7--9-9-9-9-9-9-|
|----------7-7-7-7-----------4-4-4-4--5-5-5-5-----------7-7-7-7-7-7-|
|
|
|-------------------------------------------------------------------|
|-------------------------------------------------------------------|
|-7-7-7-7-----------4-4-4-4--------------------7-7-7-7--------------|
|----------7-7-7-7-----------4-4-4-4--5-5-5-5-----------7-7-7-7-7-7-|


Pre-chorus: Those little dots are stacatto marks.  They indicate
            that the note or notes should be played short.  There.
            You learned something about standard notation. :)
[ Tab from: http://www.guitartabs.cc/tabs/s/superdrag/sucked_out_tab_ver_4.html ]
--Pre-Chorus riff--
  C#m      G#             A        B
  . . . .  . . . .        . . . .  . . . .
|-4-4-4-4--4-4-4-4---||---5-5-5-5--7-7-7-7---||---------------------|
|-5-5-5-5--4-4-4-4---||---5-5-5-5--7-7-7-7---||---------------------|
|-6-6-6-6--5-5-5-5--.||.--6-6-6-6--8-8-8-8--.||---------------------|
|-6-6-6-6--6-6-6-6--.||.--7-7-7-7--9-9-9-9--.||---------------------|
|-4-4-4-4--6-6-6-6---||---7-7-7-7--9-9-9-9---||---------------------|
|----------4-4-4-4---||---5-5-5-5--7-7-7-7---||---------------------|
|
|--------------------||---------------------------||----------------|
|-------------------.||.-------------------------.||----------------|
|-4-4-4-4-----------.||.-------------------------.||----------------|
|----------4-4-4-4---||---4-3-2-2-2-2-/7-7-7-7\---||----------------|


Chorus:

--Chorus riff--


|--------------------------------------------------------------------|
|--7--7-6--6--------------9------------------------------------------|
|------------9--9--7-6-7---------------------------------------------|
|--------------------------------------------------------------------|


Solo: Here's what I make of the solo.  Some feedback comes in a
      measure or two before.  Everything should be right except
      I'm not sure about the part at the end where the notes are
      held under the vocals but I think its right.  Rhythm guitar
      and bass play the verse parts behind the solo.

--Solo--

-----------------------------------------------------------------||
--9-9-9-9---------------------------------------------8b(9)--7---||
-----------6-8---8--8b(9)r8--6h8--5--8--6-6-6-6h8--4------------.||
----------------------------------------------------------------.||
-----------------------------------------------------------------||
-----------------------------------------------------------------||

--------------------------------------------------------------------|
-----9h10p9---------------------------------------------------------|
--8----------9~~~~~~~--8~~~~~~~~--6~~~~~~~~~--8~~~~~~~~~~~----------|
--------------------------------------------------------------------|
--------------------------------------------------------------------|
--------------------------------------------------------------------|


Outro: Again, feedback about a measure before.
       Repeat and fade.

--Outro--

  A   Ab  F#  E
  . . . . . . . .
|-5-5-4-4-2-2-0-0---||----------------------------------------------|
|-5-5-4-4-2-2-0-0---||----------------------------------------------|
|-6-6-5-5-3-3-1-1--.||----------------------------------------------|
|-7-7-6-6-4-4-2-2--.||----------------------------------------------|
|-7-7-6-6-4-4-2-2---||----------------------------------------------|
|-5-5-4-4-2-2-0-0---||----------------------------------------------|
|
|
|-----------------------------||------------------------------------|
|-7--7-6--6-4--4--/14-13-14--.||------------------------------------|
|----------------------------.||------------------------------------|
|-----------------------------||------------------------------------|

Order:  Intro riff, verse riff, Pre-chorus riff, chorus riff x2,

        Verse riff x2, Pre-chorus riff, Chorus riff x4

        Solo, Pre-chorus riff, Chorus riff x4, Outro and fade
Comments