Superdrag - Stu Chords & Tabs

 

Stu Chords & Tabs

Superdrag Chords & Tabs

Version: 2 Type: Tab 0 ratings
1 star 2 stars 3 stars 4 stars 5 stars
comments

Stu Tab

   
#----------------------------------PLEASE NOTE--------------------------------#
#This file is the author's own work and represents their interpretation of the#
#song. You may only use this file for private study, scholarship, or research.#
#-----------------------------------------------------------------------------#

Author/Artist: Superdrag
Title: Stu
Album: Greetings From Tennessee
Transcribed by: Alan Hromas
Email: arh1983@hotmail.com

Intro/Chorus/Verse 1:
	|E	|B	|F#sus4	|   *G#m| x3 	*played only sometimes
	|/ / / /|/ / / /|/ / / /|/ / / /|    	listen to the record!		

	|E5	|B5	|F#5	|       | x1
	|/ / / /|/ / / /|/ / / /|/ / / /|

Heavy Dist:
	|B5	|B5	|B5	|B5     | x1
	|/ / ///|/ / ///|/ / ///|/ / ///|  

	|E5	|B	|E5	|B      | x4
	|/  /  /|/ / / /|/  /  /|/ / / /| 
[ Tab from: http://www.guitartabs.cc/tabs/s/superdrag/stu_tab_ver_2.html ]
Verse:
	|E(5)	|C#m(5)	|B(5)	|B(5)/Bb| x3
	|///////|///////|///////|///////| 

	|Asus2	|	|E	|       | 
	|/ / / /|/ / / /|/ / / /|/ / / /| 

Chorus: (Same as Intro)
           E        B        F#
	e|-12----12-11---------------------------|
	B|---12-------12--12-12----12------------|
	G|-----13-------11-----15----15----------|
	D|-----------------------------16--------|
	A|-----------------------16------16------|
	E|----------------------------------18---|

Chords used:
	   E  B  F#sus4 G#m  E5  B5 C#m  Asus2
	e|-7--7--0------0----x---x---4----0------------|
	B|-9--7--0------0----x---x---5----0------------|
	G|-9--8--3------4----9---x---6----2------------|
	D|-9--9--4------6----9---9---6----2------------|
	A|-7--9--4------6----7---9---4----0------------|
	E|-0--7--2------4----0---7---x-----------------|
	

Comments