Superdrag - She Is A Holy Grail Chords & Tabs

 

She Is A Holy Grail Chords & Tabs

Superdrag Chords & Tabs

Version: 1 Type: Tab 0 ratings
1 star 2 stars 3 stars 4 stars 5 stars
comments

She Is A Holy Grail Tab

   
She is a Holy Grail
by John Davis
arr. by Superdrag

	
	the chords in this song are played with a bass/strum style:
  Em                Am
e|---0-0-0------------0-0-0--------------|
B|---0-0-0------------1-1-1--------------|
G|---0-0-0------------2-2-2--------------| etc...
D|---2-2-2------------2-2-2--------------|
A|---2-2-2----------0--------------------|
E|-0-------------------------------------|

	Em               E7
        //////////////// ////////////////

	
	Am
	sweet darjeering dream
	
	   E7
	of sugarcubes and cream

	     Am
	in a bridal veil

	 	 E7         F
	inhaling nicotine

        (F)
	doesn't everybody know
 
              Em             E7
	she's quite a little queen

        F
	everywhere i seem to go
[ Tab from: http://www.guitartabs.cc/tabs/s/superdrag/she_is_a_holy_grail_tab.html ]
          Em
	i find

        E7                     Am
	the masses trampling a dream


  Dm          E           Am
e|-1--0-------------------0------------|
B|-3----3--1--0--1--3--0--1------------|
G|-2----------1-----------2------------|
D|-0----------2-----------2------------|
A|------------2-----------0------------|
E|------------0------------------------|





Outro (w/piano)
e|-----|----------------|----------------0-|----0-1-0-----0---0-----------|
B|-0-1-|-0--------------|------------------|-----------3----3---3-1-0-1---|
G|-----|---2--------2/4-|-2-2-2/4-2-1------|------------------------------|
D|-----|------2---------|--------------2---|------------------------------|
A|-----|----------------|------------------|------------------------------|
E|-----|----------------|------------------|------------------------------|
Comments