Superdrag - Safe Warm Chords & Tabs

 

Safe Warm Chords & Tabs

Superdrag Chords & Tabs

Version: 1 Type: Chords 0 ratings
1 star 2 stars 3 stars 4 stars 5 stars
comments

Safe Warm Chords

   
"Safe & Warm"
Superdrag
Last Call for Vitriol
tabbed by: Kyle Benson

Upon finding absolutely no tabs whatsoever for this song, I decided to start the task for myself. 
The song is largely acoustic guitar, which is what I transcribed. There's also a pedal steel in the 
song, but I don't have that.



Chords:
|--2---|----2---|----2---|----2---|---3---|-----3---|----2---|----2---|
|--3---|----2---|----1---|----3---|---0---|-----3---|----0---|----3---|
|--2---|----2---|----2---|----2---|---0---|-----3---|----2---|----4---|
|--0---|----0---|----0---|----x---|---0---|-----0---|----1---|----4---|
|------|--------|--------|----4---|---2---|-----x---|----2---|----2---|
|------|--------|--------|--------|---3---|-----3---|--------|--------|
   D      Dmaj7     D7      D/ C#     G        Gm       B7       Bm    

|---0---|----0---|----3---|----3----|
|---0---|----2---|----3---|----3----|
|---0---|----2---|----0---|----0----|
|---2---|----2---|----0---|----0----|
|---2---|----0---|----1---|----3----|
|---0---|--------|--------|---------|
   Em        A      G/ Bb     G/ C



Intro:

D 	Dmaj7	D7	G
[ Tab from: http://www.guitartabs.cc/tabs/s/superdrag/safe_warm_crd.html ]
Verse 1:
	
	D					      Dmaj7
	Bottles on the windowsill, 	   they've got a tale to tell
	
	    D7			 	         G
	and I can't put it any other way.

		   Gm						     D	   D/ C#   B7
	I just wanna stay right here in your arms
	
		    Em				    A				   G      D
	til the morning comes, I'll keep you safe from harm.

Verse 2: (repeat)
	
	You've been mine for so long now, seems like I've forgotten how
	to want anyone but you to love me.

	I just wanna stay right here in your arms
	and I'll feel satisfied, just to know I'm safe and warm

Bridge:	

(D/ C#)   Bm		G			   D			     D/ C#
	      What do I have to do to make you realize
	     
	      Bm		     G				      E              A
	      the light that shines on you is too bright for the sky

Verse 3:	

	them bottles on the windowsill
	there's a broken heart they'll never heal
	and I can't  put it any other way

		   Gm						     D	     D/ C#  B7
	I just wanna stay right here in your arms

		    Em				      Gm
	til the morning comes I'll be safe and warm

Outro:

	D	Dmaj7	D7	G	G/Bb   G/C	D



I'm almost 99% sure that this is accurate. It sounds accurate to my ear, but if you have questions or 
corrections feel free to email me.   flightofthepenguin@yahoo.com
Comments