Superdrag - Really Thru Chords & Tabs

 

Really Thru Chords & Tabs

Superdrag Chords & Tabs

Version: 1 Type: Tab 0 ratings
1 star 2 stars 3 stars 4 stars 5 stars
comments

Really Thru Tab

   
Really Thru
by John Davis
arr. by Superdrag

Intro-

bass:	G|----------------------------------|
	D|-11------------14-----------------|
	A|----11----14------14-12-----------|
	E|-------12-------------------------|

played (w/slight var.) during verse also.
one guitar fades in doubling bass, another goes:

	e|-12-12-12---12-12-12---12-12-12---|
[ Tab from: http://www.guitartabs.cc/tabs/s/superdrag/really_thru_tab.html ]
for the loud part of the intro, bass stays the same, but:

	Guitar 1-
	E        B       A
        / / / /  / / / / / / / / / / / /

        Guitar 2-
	e|-12-----------------------------|
        B|--------------------------------|
	G|--------14-13-------------------|
	D|----14--------14----------------|
	A|--------------------------------|
	E|--------------------------------|

This is pretty much it
Comments