Superdrag - Here We Come Chords & Tabs

 

Here We Come Chords & Tabs

Superdrag Chords & Tabs

Version: 1 Type: Tab 0 ratings
1 star 2 stars 3 stars 4 stars 5 stars
comments

Here We Come Tab

   
#----------------------------------PLEASE NOTE--------------------------------#
#This file is the author's own work and represents their interpretation of the#
#song. You may only use this file for private study, scholarship, or research.#
#-----------------------------------------------------------------------------#

Author/Artist: Superdrag
Title: Here We Come
Album: Demo
Transcribed by: Alan Hromas
Email: arh1983@hotmail.com

Intro:	    Am      C	    Bm7#9   E
	e|-----------------------------------|
	B|----1-1-----1-1-----3-3-----0-0----|
	G|----2-2-----0-0-----2-2-----1-1----|
	D|----2-2-----2-2-----0-0-----2-2----|
	A|--0-----2-3-----3-2-----2---2-2----| 
	E|--------------------------0-----0--|	

Chorus: (with A5/A6 riff)
[ Tab from: http://www.guitartabs.cc/tabs/s/superdrag/here_we_come_tab.html ]
	|A5	|B5	|C5  /E	|A5	|
	|///////|///////|///////|///////|

	|A5	|B5	|C5  /E	|A5  B5 |
	|///////|///////|///////|/// /  |

	|C5  G5	|F   C	|F   C	|F   C	|Em7	|
	|/// /  |/// /  |/// /  |/// /  |/ / / /|

Verse: (use intro)

Chorus.

Lead fill played over A5 during chorus:
	e|--------------------------|
	B|------5---7---------------|
	G|--4/6---6--6\4-2----------|
The / and \ are a bend, hold, and release.


	
	


	

	   A5/A6           B5/B6
	e|-----------------------------------|
	B|-----------------------------------|
	G|-----------------------------------|
	D|-2-2-4-2-2-2-4-2-4-4-6-4-4-4-6-4---|
	A|-0-0-0-0-0-0-0-0-2-2-2-2-2-2-2-2---| 
	E|-----------------------------------|

	
Comments